  0
SECTION
  2
HEADER
  9
$ACADVER
  1
AC1009
  9
$FILLMODE
 70
0
  9
$EXTMIN
 10
-2.8590
 20
-10.0160
 30
0.0000
  9
$EXTMAX
 10
53.2722
 20
45.2772
 30
0.0000
  0
ENDSEC
  0
SECTION
  2
TABLES
  0
TABLE
  2
LTYPE
 70
1
  0
LTYPE
  2
CONTINUOUS
 70
64
  3
Solid line
 72
65
 73
0
 40
0
  0
ENDTAB
  0
TABLE
  2
LAYER
 70
255
  0
LAYER
  2
20
 70
64
 62
7
  6
CONTINUOUS
  0
LAYER
  2
45
 70
64
 62
253
  6
CONTINUOUS
  0
LAYER
  2
46
 70
64
 62
140
  6
CONTINUOUS
  0
LAYER
  2
51
 70
64
 62
253
  6
CONTINUOUS
  0
ENDTAB
  0
ENDSEC
  0
SECTION
  2
BLOCKS
  0
BLOCK
  8
0
  2
RECT
 70
64
 10
0.0000
 20
0.0000
 30
0.0000
  3
RECT
  0
SOLID
  8
0
 10
-0.5000
 20
-0.5000
 30
0.0000
 11
0.5000
 21
-0.5000
 31
0.0000
 12
-0.5000
 22
0.5000
 32
0.0000
 13
0.5000
 23
0.5000
 33
0.0000
  0
ENDBLK
  8
0
  0
BLOCK
  8
0
  2
PIE
 70
64
 10
0.0000
 20
0.0000
 30
0.0000
  3
PIE
  0
CIRCLE
  8
0
 10
0.0000
 20
0.0000
 30
0.0000
 40
0.5000
  0
ENDBLK
  8
0
  0
BLOCK
  8
0
  2
OCTAGONP
 70
64
 10
0.0000
 20
0.0000
 30
0.0000
  3
OCTAGONP
  0
POLYLINE
  8
0
 66
1
 10
0.0000
 20
0.0000
 30
0.0000
 40
0.0000
 41
0.0000
 70
1
  0
VERTEX
  8
0
 10
-0.5000
 20
-0.2071
 30
0.0000
  0
VERTEX
  8
0
 10
-0.5000
 20
0.2071
 30
0.0000
  0
VERTEX
  8
0
 10
-0.2071
 20
0.5000
 30
0.0000
  0
VERTEX
  8
0
 10
0.2071
 20
0.5000
 30
0.0000
  0
VERTEX
  8
0
 10
0.5000
 20
0.2071
 30
0.0000
  0
VERTEX
  8
0
 10
0.5000
 20
-0.2071
 30
0.0000
  0
VERTEX
  8
0
 10
0.2071
 20
-0.5000
 30
0.0000
  0
VERTEX
  8
0
 10
-0.2071
 20
-0.5000
 30
0.0000
  0
SEQEND
  8
0
  0
ENDBLK
  8
0
  0
BLOCK
  8
0
  2
SQUAREP
 70
64
 10
0.0000
 20
0.0000
 30
0.0000
  3
SQUAREP
  0
SOLID
  8
0
 10
-0.5000
 20
-0.5000
 30
0.0000
 11
0.5000
 21
-0.5000
 31
0.0000
 12
-0.5000
 22
0.5000
 32
0.0000
 13
0.5000
 23
0.5000
 33
0.0000
  0
ENDBLK
  8
0
  0
BLOCK
  8
0
  2
ROUNDP
 70
64
 10
0.0000
 20
0.0000
 30
0.0000
  3
ROUNDP
  0
CIRCLE
  8
0
 10
0.0000
 20
0.0000
 30
0.0000
 40
0.5000
  0
ENDBLK
  8
0
  0
BLOCK
  8
0
  2
ANNULUSP
 70
64
 10
0.0000
 20
0.0000
 30
0.0000
  3
ANNULUSP
  0
CIRCLE
  8
0
 10
0.0000
 20
0.0000
 30
0.0000
 40
0.5000
  0
ENDBLK
  8
0
  0
BLOCK
  8
0
  2
THERMALP
 70
64
 10
0.0000
 20
0.0000
 30
0.0000
  3
THERMALP
  0
POLYLINE
  8
0
 66
1
 10
0.0000
 20
0.0000
 30
0.0000
 40
0.0000
 41
0.0000
 70
1
  0
VERTEX
  8
0
 10
-0.2379
 20
0.4000
 30
0.0000
  0
VERTEX
  8
0
 10
0.2379
 20
0.4000
 30
0.0000
 42
1.0000
  0
VERTEX
  8
0
 10
0.2379
 20
0.5000
 30
0.0000
  0
VERTEX
  8
0
 10
-0.2379
 20
0.5000
 30
0.0000
 42
1.0000
  0
SEQEND
  8
0
  0
POLYLINE
  8
0
 66
1
 10
0.0000
 20
0.0000
 30
0.0000
 40
0.0000
 41
0.0000
 70
1
  0
VERTEX
  8
0
 10
0.4000
 20
0.2379
 30
0.0000
  0
VERTEX
  8
0
 10
0.4000
 20
-0.2379
 30
0.0000
 42
1.0000
  0
VERTEX
  8
0
 10
0.5000
 20
-0.2379
 30
0.0000
  0
VERTEX
  8
0
 10
0.5000
 20
0.2379
 30
0.0000
 42
1.0000
  0
SEQEND
  8
0
  0
POLYLINE
  8
0
 66
1
 10
0.0000
 20
0.0000
 30
0.0000
 40
0.0000
 41
0.0000
 70
1
  0
VERTEX
  8
0
 10
0.2379
 20
-0.4000
 30
0.0000
  0
VERTEX
  8
0
 10
-0.2379
 20
-0.4000
 30
0.0000
 42
1.0000
  0
VERTEX
  8
0
 10
-0.2379
 20
-0.5000
 30
0.0000
  0
VERTEX
  8
0
 10
0.2379
 20
-0.5000
 30
0.0000
 42
1.0000
  0
SEQEND
  8
0
  0
POLYLINE
  8
0
 66
1
 10
0.0000
 20
0.0000
 30
0.0000
 40
0.0000
 41
0.0000
 70
1
  0
VERTEX
  8
0
 10
-0.4000
 20
-0.2379
 30
0.0000
  0
VERTEX
  8
0
 10
-0.4000
 20
0.2379
 30
0.0000
 42
1.0000
  0
VERTEX
  8
0
 10
-0.5000
 20
0.2379
 30
0.0000
  0
VERTEX
  8
0
 10
-0.5000
 20
-0.2379
 30
0.0000
 42
1.0000
  0
SEQEND
  8
0
  0
ENDBLK
  8
0
  0
BLOCK
  8
0
  2
OCTAGONV
 70
64
 10
0.0000
 20
0.0000
 30
0.0000
  3
OCTAGONV
  0
POLYLINE
  8
0
 66
1
 10
0.0000
 20
0.0000
 30
0.0000
 40
0.0000
 41
0.0000
 70
1
  0
VERTEX
  8
0
 10
-0.5000
 20
-0.2071
 30
0.0000
  0
VERTEX
  8
0
 10
-0.5000
 20
0.2071
 30
0.0000
  0
VERTEX
  8
0
 10
-0.2071
 20
0.5000
 30
0.0000
  0
VERTEX
  8
0
 10
0.2071
 20
0.5000
 30
0.0000
  0
VERTEX
  8
0
 10
0.5000
 20
0.2071
 30
0.0000
  0
VERTEX
  8
0
 10
0.5000
 20
-0.2071
 30
0.0000
  0
VERTEX
  8
0
 10
0.2071
 20
-0.5000
 30
0.0000
  0
VERTEX
  8
0
 10
-0.2071
 20
-0.5000
 30
0.0000
  0
SEQEND
  8
0
  0
ENDBLK
  8
0
  0
BLOCK
  8
0
  2
SQUAREV
 70
64
 10
0.0000
 20
0.0000
 30
0.0000
  3
SQUAREV
  0
SOLID
  8
0
 10
-0.5000
 20
-0.5000
 30
0.0000
 11
0.5000
 21
-0.5000
 31
0.0000
 12
-0.5000
 22
0.5000
 32
0.0000
 13
0.5000
 23
0.5000
 33
0.0000
  0
ENDBLK
  8
0
  0
BLOCK
  8
0
  2
ROUNDV
 70
64
 10
0.0000
 20
0.0000
 30
0.0000
  3
ROUNDV
  0
CIRCLE
  8
0
 10
0.0000
 20
0.0000
 30
0.0000
 40
0.5000
  0
ENDBLK
  8
0
  0
BLOCK
  8
0
  2
ANNULUSV
 70
64
 10
0.0000
 20
0.0000
 30
0.0000
  3
ANNULUSV
  0
CIRCLE
  8
0
 10
0.0000
 20
0.0000
 30
0.0000
 40
0.5000
  0
ENDBLK
  8
0
  0
BLOCK
  8
0
  2
THERMALV
 70
64
 10
0.0000
 20
0.0000
 30
0.0000
  3
THERMALV
  0
POLYLINE
  8
0
 66
1
 10
0.0000
 20
0.0000
 30
0.0000
 40
0.0000
 41
0.0000
 70
1
  0
VERTEX
  8
0
 10
-0.2379
 20
0.4000
 30
0.0000
  0
VERTEX
  8
0
 10
0.2379
 20
0.4000
 30
0.0000
 42
1.0000
  0
VERTEX
  8
0
 10
0.2379
 20
0.5000
 30
0.0000
  0
VERTEX
  8
0
 10
-0.2379
 20
0.5000
 30
0.0000
 42
1.0000
  0
SEQEND
  8
0
  0
POLYLINE
  8
0
 66
1
 10
0.0000
 20
0.0000
 30
0.0000
 40
0.0000
 41
0.0000
 70
1
  0
VERTEX
  8
0
 10
0.4000
 20
0.2379
 30
0.0000
  0
VERTEX
  8
0
 10
0.4000
 20
-0.2379
 30
0.0000
 42
1.0000
  0
VERTEX
  8
0
 10
0.5000
 20
-0.2379
 30
0.0000
  0
VERTEX
  8
0
 10
0.5000
 20
0.2379
 30
0.0000
 42
1.0000
  0
SEQEND
  8
0
  0
POLYLINE
  8
0
 66
1
 10
0.0000
 20
0.0000
 30
0.0000
 40
0.0000
 41
0.0000
 70
1
  0
VERTEX
  8
0
 10
0.2379
 20
-0.4000
 30
0.0000
  0
VERTEX
  8
0
 10
-0.2379
 20
-0.4000
 30
0.0000
 42
1.0000
  0
VERTEX
  8
0
 10
-0.2379
 20
-0.5000
 30
0.0000
  0
VERTEX
  8
0
 10
0.2379
 20
-0.5000
 30
0.0000
 42
1.0000
  0
SEQEND
  8
0
  0
POLYLINE
  8
0
 66
1
 10
0.0000
 20
0.0000
 30
0.0000
 40
0.0000
 41
0.0000
 70
1
  0
VERTEX
  8
0
 10
-0.4000
 20
-0.2379
 30
0.0000
  0
VERTEX
  8
0
 10
-0.4000
 20
0.2379
 30
0.0000
 42
1.0000
  0
VERTEX
  8
0
 10
-0.5000
 20
0.2379
 30
0.0000
  0
VERTEX
  8
0
 10
-0.5000
 20
-0.2379
 30
0.0000
 42
1.0000
  0
SEQEND
  8
0
  0
ENDBLK
  8
0
  0
ENDSEC
  0
SECTION
  2
ENTITIES
  0
LINE
  8
20
 10
-2.7940
 20
-2.7940
 30
0.0000
 11
45.2174
 21
-2.7940
 31
0.0000
  0
LINE
  8
20
 10
45.2174
 20
-2.7940
 30
0.0000
 11
45.2174
 21
45.2122
 31
0.0000
  0
LINE
  8
20
 10
45.2174
 20
45.2122
 30
0.0000
 11
-2.7940
 21
45.2122
 31
0.0000
  0
LINE
  8
20
 10
-2.7940
 20
45.2122
 30
0.0000
 11
-2.7940
 21
-2.7940
 31
0.0000
  0
POLYLINE
  8
46
 66
1
 10
0.0000
 20
0.0000
 30
0.0000
 40
0.0000
 41
0.0000
 70
1
  0
VERTEX
  8
46
 10
12.4840
 20
14.4272
 30
0.0000
  0
VERTEX
  8
46
 10
12.4840
 20
28.1178
 30
0.0000
 42
1.0000
  0
VERTEX
  8
46
 10
10.8840
 20
28.1178
 30
0.0000
  0
VERTEX
  8
46
 10
10.8840
 20
14.4272
 30
0.0000
 42
1.0000
  0
SEQEND
  8
0
  0
POLYLINE
  8
46
 66
1
 10
0.0000
 20
0.0000
 30
0.0000
 40
0.0000
 41
0.0000
 70
1
  0
VERTEX
  8
46
 10
31.4324
 20
14.3256
 30
0.0000
  0
VERTEX
  8
46
 10
31.4324
 20
14.4018
 30
0.0000
 42
1.0000
  0
VERTEX
  8
46
 10
29.8324
 20
14.4018
 30
0.0000
  0
VERTEX
  8
46
 10
29.8324
 20
14.3256
 30
0.0000
 42
1.0000
  0
SEQEND
  8
0
  0
POLYLINE
  8
46
 66
1
 10
0.0000
 20
0.0000
 30
0.0000
 40
0.0000
 41
0.0000
 70
1
  0
VERTEX
  8
46
 10
31.4324
 20
14.4018
 30
0.0000
  0
VERTEX
  8
46
 10
31.4324
 20
28.0162
 30
0.0000
 42
1.0000
  0
VERTEX
  8
46
 10
29.8324
 20
28.0162
 30
0.0000
  0
VERTEX
  8
46
 10
29.8324
 20
14.4018
 30
0.0000
 42
1.0000
  0
SEQEND
  8
0
  0
POLYLINE
  8
46
 66
1
 10
0.0000
 20
0.0000
 30
0.0000
 40
0.0000
 41
0.0000
 70
1
  0
VERTEX
  8
46
 10
14.3510
 20
30.0356
 30
0.0000
  0
VERTEX
  8
46
 10
28.0416
 20
30.0356
 30
0.0000
 42
1.0000
  0
VERTEX
  8
46
 10
28.0416
 20
31.6356
 30
0.0000
  0
VERTEX
  8
46
 10
14.3510
 20
31.6356
 30
0.0000
 42
1.0000
  0
SEQEND
  8
0
  0
POLYLINE
  8
46
 66
1
 10
0.0000
 20
0.0000
 30
0.0000
 40
0.0000
 41
0.0000
 70
1
  0
VERTEX
  8
46
 10
14.2748
 20
11.0110
 30
0.0000
  0
VERTEX
  8
46
 10
27.9654
 20
11.0110
 30
0.0000
 42
1.0000
  0
VERTEX
  8
46
 10
27.9654
 20
12.6110
 30
0.0000
  0
VERTEX
  8
46
 10
14.2748
 20
12.6110
 30
0.0000
 42
1.0000
  0
SEQEND
  8
0
  0
POLYLINE
  8
46
 66
1
 10
0.0000
 20
0.0000
 30
0.0000
 40
0.0000
 41
0.0000
 70
1
  0
VERTEX
  8
46
 10
11.6586
 20
13.6272
 30
0.0000
  0
VERTEX
  8
46
 10
11.6840
 20
13.6272
 30
0.0000
 42
1.0000
  0
VERTEX
  8
46
 10
11.6840
 20
15.2272
 30
0.0000
  0
VERTEX
  8
46
 10
11.6586
 20
15.2272
 30
0.0000
 42
1.0000
  0
SEQEND
  8
0
  0
POLYLINE
  8
46
 66
1
 10
0.0000
 20
0.0000
 30
0.0000
 40
0.0000
 41
0.0000
 70
1
  0
VERTEX
  8
46
 10
11.1183
 20
13.8615
 30
0.0000
  0
VERTEX
  8
46
 10
13.7091
 20
11.2707
 30
0.0000
 42
1.0000
  0
VERTEX
  8
46
 10
14.8405
 20
12.4021
 30
0.0000
  0
VERTEX
  8
46
 10
12.2497
 20
14.9929
 30
0.0000
 42
1.0000
  0
SEQEND
  8
0
  0
POLYLINE
  8
46
 66
1
 10
0.0000
 20
0.0000
 30
0.0000
 40
0.0000
 41
0.0000
 70
1
  0
VERTEX
  8
46
 10
28.6073
 20
11.2453
 30
0.0000
  0
VERTEX
  8
46
 10
31.1981
 20
13.8361
 30
0.0000
 42
1.0000
  0
VERTEX
  8
46
 10
30.0667
 20
14.9675
 30
0.0000
  0
VERTEX
  8
46
 10
27.4759
 20
12.3767
 30
0.0000
 42
1.0000
  0
SEQEND
  8
0
  0
POLYLINE
  8
46
 66
1
 10
0.0000
 20
0.0000
 30
0.0000
 40
0.0000
 41
0.0000
 70
1
  0
VERTEX
  8
46
 10
31.1981
 20
28.7851
 30
0.0000
  0
VERTEX
  8
46
 10
28.6073
 20
31.3759
 30
0.0000
 42
1.0000
  0
VERTEX
  8
46
 10
27.4759
 20
30.2445
 30
0.0000
  0
VERTEX
  8
46
 10
30.0667
 20
27.6537
 30
0.0000
 42
1.0000
  0
SEQEND
  8
0
  0
POLYLINE
  8
46
 66
1
 10
0.0000
 20
0.0000
 30
0.0000
 40
0.0000
 41
0.0000
 70
1
  0
VERTEX
  8
46
 10
13.7345
 20
31.4013
 30
0.0000
  0
VERTEX
  8
46
 10
11.1437
 20
28.8105
 30
0.0000
 42
1.0000
  0
VERTEX
  8
46
 10
12.2751
 20
27.6791
 30
0.0000
  0
VERTEX
  8
46
 10
14.8659
 20
30.2699
 30
0.0000
 42
1.0000
  0
SEQEND
  8
0
  0
POLYLINE
  8
51
 66
1
 10
0.0000
 20
0.0000
 30
0.0000
 40
0.0000
 41
0.0000
 70
1
  0
VERTEX
  8
51
 10
-2.8590
 20
-2.7940
 30
0.0000
  0
VERTEX
  8
51
 10
-2.8590
 20
-9.9510
 30
0.0000
 42
1.0000
  0
VERTEX
  8
51
 10
-2.7290
 20
-9.9510
 30
0.0000
  0
VERTEX
  8
51
 10
-2.7290
 20
-2.7940
 30
0.0000
 42
1.0000
  0
SEQEND
  8
0
  0
POLYLINE
  8
51
 66
1
 10
0.0000
 20
0.0000
 30
0.0000
 40
0.0000
 41
0.0000
 70
1
  0
VERTEX
  8
51
 10
45.1524
 20
-2.7940
 30
0.0000
  0
VERTEX
  8
51
 10
45.1524
 20
-9.9510
 30
0.0000
 42
1.0000
  0
VERTEX
  8
51
 10
45.2824
 20
-9.9510
 30
0.0000
  0
VERTEX
  8
51
 10
45.2824
 20
-2.7940
 30
0.0000
 42
1.0000
  0
SEQEND
  8
0
  0
POLYLINE
  8
51
 66
1
 10
0.0000
 20
0.0000
 30
0.0000
 40
0.0000
 41
0.0000
 70
1
  0
VERTEX
  8
51
 10
-2.7940
 20
-8.0660
 30
0.0000
  0
VERTEX
  8
51
 10
45.2174
 20
-8.0660
 30
0.0000
 42
1.0000
  0
VERTEX
  8
51
 10
45.2174
 20
-7.9360
 30
0.0000
  0
VERTEX
  8
51
 10
-2.7940
 20
-7.9360
 30
0.0000
 42
1.0000
  0
SEQEND
  8
0
  0
POLYLINE
  8
51
 66
1
 10
0.0000
 20
0.0000
 30
0.0000
 40
0.0000
 41
0.0000
 70
1
  0
VERTEX
  8
51
 10
-2.7861
 20
-8.0655
 30
0.0000
  0
VERTEX
  8
51
 10
-0.1861
 20
-7.7463
 30
0.0000
 42
1.0000
  0
VERTEX
  8
51
 10
-0.2019
 20
-7.6172
 30
0.0000
  0
VERTEX
  8
51
 10
-2.8019
 20
-7.9365
 30
0.0000
 42
1.0000
  0
SEQEND
  8
0
  0
POLYLINE
  8
51
 66
1
 10
0.0000
 20
0.0000
 30
0.0000
 40
0.0000
 41
0.0000
 70
1
  0
VERTEX
  8
51
 10
-0.2590
 20
-7.6818
 30
0.0000
  0
VERTEX
  8
51
 10
-0.2590
 20
-8.3202
 30
0.0000
 42
1.0000
  0
VERTEX
  8
51
 10
-0.1290
 20
-8.3202
 30
0.0000
  0
VERTEX
  8
51
 10
-0.1290
 20
-7.6818
 30
0.0000
 42
1.0000
  0
SEQEND
  8
0
  0
POLYLINE
  8
51
 66
1
 10
0.0000
 20
0.0000
 30
0.0000
 40
0.0000
 41
0.0000
 70
1
  0
VERTEX
  8
51
 10
-0.1861
 20
-8.2557
 30
0.0000
  0
VERTEX
  8
51
 10
-2.7861
 20
-7.9365
 30
0.0000
 42
1.0000
  0
VERTEX
  8
51
 10
-2.8019
 20
-8.0655
 30
0.0000
  0
VERTEX
  8
51
 10
-0.2019
 20
-8.3848
 30
0.0000
 42
1.0000
  0
SEQEND
  8
0
  0
POLYLINE
  8
51
 66
1
 10
0.0000
 20
0.0000
 30
0.0000
 40
0.0000
 41
0.0000
 70
1
  0
VERTEX
  8
51
 10
-2.7908
 20
-8.0659
 30
0.0000
  0
VERTEX
  8
51
 10
-0.1908
 20
-7.9359
 30
0.0000
 42
1.0000
  0
VERTEX
  8
51
 10
-0.1972
 20
-7.8061
 30
0.0000
  0
VERTEX
  8
51
 10
-2.7972
 20
-7.9361
 30
0.0000
 42
1.0000
  0
SEQEND
  8
0
  0
POLYLINE
  8
51
 66
1
 10
0.0000
 20
0.0000
 30
0.0000
 40
0.0000
 41
0.0000
 70
1
  0
VERTEX
  8
51
 10
-0.1908
 20
-8.0661
 30
0.0000
  0
VERTEX
  8
51
 10
-2.7908
 20
-7.9361
 30
0.0000
 42
1.0000
  0
VERTEX
  8
51
 10
-2.7972
 20
-8.0659
 30
0.0000
  0
VERTEX
  8
51
 10
-0.1972
 20
-8.1959
 30
0.0000
 42
1.0000
  0
SEQEND
  8
0
  0
POLYLINE
  8
51
 66
1
 10
0.0000
 20
0.0000
 30
0.0000
 40
0.0000
 41
0.0000
 70
1
  0
VERTEX
  8
51
 10
-2.7875
 20
-8.0657
 30
0.0000
  0
VERTEX
  8
51
 10
-0.1875
 20
-7.8057
 30
0.0000
 42
1.0000
  0
VERTEX
  8
51
 10
-0.2005
 20
-7.6763
 30
0.0000
  0
VERTEX
  8
51
 10
-2.8005
 20
-7.9363
 30
0.0000
 42
1.0000
  0
SEQEND
  8
0
  0
POLYLINE
  8
51
 66
1
 10
0.0000
 20
0.0000
 30
0.0000
 40
0.0000
 41
0.0000
 70
1
  0
VERTEX
  8
51
 10
-0.1875
 20
-8.1963
 30
0.0000
  0
VERTEX
  8
51
 10
-2.7875
 20
-7.9363
 30
0.0000
 42
1.0000
  0
VERTEX
  8
51
 10
-2.8005
 20
-8.0657
 30
0.0000
  0
VERTEX
  8
51
 10
-0.2005
 20
-8.3257
 30
0.0000
 42
1.0000
  0
SEQEND
  8
0
  0
POLYLINE
  8
51
 66
1
 10
0.0000
 20
0.0000
 30
0.0000
 40
0.0000
 41
0.0000
 70
1
  0
VERTEX
  8
51
 10
45.2253
 20
-7.9365
 30
0.0000
  0
VERTEX
  8
51
 10
42.6253
 20
-7.6172
 30
0.0000
 42
1.0000
  0
VERTEX
  8
51
 10
42.6095
 20
-7.7463
 30
0.0000
  0
VERTEX
  8
51
 10
45.2095
 20
-8.0655
 30
0.0000
 42
1.0000
  0
SEQEND
  8
0
  0
POLYLINE
  8
51
 66
1
 10
0.0000
 20
0.0000
 30
0.0000
 40
0.0000
 41
0.0000
 70
1
  0
VERTEX
  8
51
 10
42.5524
 20
-7.6818
 30
0.0000
  0
VERTEX
  8
51
 10
42.5524
 20
-8.3202
 30
0.0000
 42
1.0000
  0
VERTEX
  8
51
 10
42.6824
 20
-8.3202
 30
0.0000
  0
VERTEX
  8
51
 10
42.6824
 20
-7.6818
 30
0.0000
 42
1.0000
  0
SEQEND
  8
0
  0
POLYLINE
  8
51
 66
1
 10
0.0000
 20
0.0000
 30
0.0000
 40
0.0000
 41
0.0000
 70
1
  0
VERTEX
  8
51
 10
42.6253
 20
-8.3848
 30
0.0000
  0
VERTEX
  8
51
 10
45.2253
 20
-8.0655
 30
0.0000
 42
1.0000
  0
VERTEX
  8
51
 10
45.2095
 20
-7.9365
 30
0.0000
  0
VERTEX
  8
51
 10
42.6095
 20
-8.2557
 30
0.0000
 42
1.0000
  0
SEQEND
  8
0
  0
POLYLINE
  8
51
 66
1
 10
0.0000
 20
0.0000
 30
0.0000
 40
0.0000
 41
0.0000
 70
1
  0
VERTEX
  8
51
 10
45.2206
 20
-7.9361
 30
0.0000
  0
VERTEX
  8
51
 10
42.6206
 20
-7.8061
 30
0.0000
 42
1.0000
  0
VERTEX
  8
51
 10
42.6142
 20
-7.9359
 30
0.0000
  0
VERTEX
  8
51
 10
45.2142
 20
-8.0659
 30
0.0000
 42
1.0000
  0
SEQEND
  8
0
  0
POLYLINE
  8
51
 66
1
 10
0.0000
 20
0.0000
 30
0.0000
 40
0.0000
 41
0.0000
 70
1
  0
VERTEX
  8
51
 10
42.6206
 20
-8.1959
 30
0.0000
  0
VERTEX
  8
51
 10
45.2206
 20
-8.0659
 30
0.0000
 42
1.0000
  0
VERTEX
  8
51
 10
45.2142
 20
-7.9361
 30
0.0000
  0
VERTEX
  8
51
 10
42.6142
 20
-8.0661
 30
0.0000
 42
1.0000
  0
SEQEND
  8
0
  0
POLYLINE
  8
51
 66
1
 10
0.0000
 20
0.0000
 30
0.0000
 40
0.0000
 41
0.0000
 70
1
  0
VERTEX
  8
51
 10
45.2239
 20
-7.9363
 30
0.0000
  0
VERTEX
  8
51
 10
42.6239
 20
-7.6763
 30
0.0000
 42
1.0000
  0
VERTEX
  8
51
 10
42.6109
 20
-7.8057
 30
0.0000
  0
VERTEX
  8
51
 10
45.2109
 20
-8.0657
 30
0.0000
 42
1.0000
  0
SEQEND
  8
0
  0
POLYLINE
  8
51
 66
1
 10
0.0000
 20
0.0000
 30
0.0000
 40
0.0000
 41
0.0000
 70
1
  0
VERTEX
  8
51
 10
42.6239
 20
-8.3257
 30
0.0000
  0
VERTEX
  8
51
 10
45.2239
 20
-8.0657
 30
0.0000
 42
1.0000
  0
VERTEX
  8
51
 10
45.2109
 20
-7.9363
 30
0.0000
  0
VERTEX
  8
51
 10
42.6109
 20
-8.1963
 30
0.0000
 42
1.0000
  0
SEQEND
  8
0
  0
POLYLINE
  8
51
 66
1
 10
0.0000
 20
0.0000
 30
0.0000
 40
0.0000
 41
0.0000
 70
1
  0
VERTEX
  8
51
 10
20.4398
 20
-7.6932
 30
0.0000
  0
VERTEX
  8
51
 10
20.4398
 20
-7.1339
 30
0.0000
 42
1.0000
  0
VERTEX
  8
51
 10
20.3890
 20
-7.1339
 30
0.0000
  0
VERTEX
  8
51
 10
20.3890
 20
-7.6932
 30
0.0000
 42
1.0000
  0
SEQEND
  8
0
  0
POLYLINE
  8
51
 66
1
 10
0.0000
 20
0.0000
 30
0.0000
 40
0.0000
 41
0.0000
 70
1
  0
VERTEX
  8
51
 10
20.3964
 20
-7.1160
 30
0.0000
  0
VERTEX
  8
51
 10
20.1168
 20
-7.3956
 30
0.0000
 42
1.0000
  0
VERTEX
  8
51
 10
20.1527
 20
-7.4315
 30
0.0000
  0
VERTEX
  8
51
 10
20.4324
 20
-7.1519
 30
0.0000
 42
1.0000
  0
SEQEND
  8
0
  0
POLYLINE
  8
51
 66
1
 10
0.0000
 20
0.0000
 30
0.0000
 40
0.0000
 41
0.0000
 70
1
  0
VERTEX
  8
51
 10
20.1348
 20
-7.4390
 30
0.0000
  0
VERTEX
  8
51
 10
20.5076
 20
-7.4390
 30
0.0000
 42
1.0000
  0
VERTEX
  8
51
 10
20.5076
 20
-7.3882
 30
0.0000
  0
VERTEX
  8
51
 10
20.1348
 20
-7.3882
 30
0.0000
 42
1.0000
  0
SEQEND
  8
0
  0
POLYLINE
  8
51
 66
1
 10
0.0000
 20
0.0000
 30
0.0000
 40
0.0000
 41
0.0000
 70
1
  0
VERTEX
  8
51
 10
20.7140
 20
-7.2451
 30
0.0000
  0
VERTEX
  8
51
 10
20.8072
 20
-7.1519
 30
0.0000
 42
1.0000
  0
VERTEX
  8
51
 10
20.7713
 20
-7.1160
 30
0.0000
  0
VERTEX
  8
51
 10
20.6781
 20
-7.2092
 30
0.0000
 42
1.0000
  0
SEQEND
  8
0
  0
POLYLINE
  8
51
 66
1
 10
0.0000
 20
0.0000
 30
0.0000
 40
0.0000
 41
0.0000
 70
1
  0
VERTEX
  8
51
 10
20.7893
 20
-7.1593
 30
0.0000
  0
VERTEX
  8
51
 10
20.9757
 20
-7.1593
 30
0.0000
 42
1.0000
  0
VERTEX
  8
51
 10
20.9757
 20
-7.1085
 30
0.0000
  0
VERTEX
  8
51
 10
20.7893
 20
-7.1085
 30
0.0000
 42
1.0000
  0
SEQEND
  8
0
  0
POLYLINE
  8
51
 66
1
 10
0.0000
 20
0.0000
 30
0.0000
 40
0.0000
 41
0.0000
 70
1
  0
VERTEX
  8
51
 10
20.9577
 20
-7.1519
 30
0.0000
  0
VERTEX
  8
51
 10
21.0510
 20
-7.2451
 30
0.0000
 42
1.0000
  0
VERTEX
  8
51
 10
21.0869
 20
-7.2092
 30
0.0000
  0
VERTEX
  8
51
 10
20.9937
 20
-7.1160
 30
0.0000
 42
1.0000
  0
SEQEND
  8
0
  0
POLYLINE
  8
51
 66
1
 10
0.0000
 20
0.0000
 30
0.0000
 40
0.0000
 41
0.0000
 70
1
  0
VERTEX
  8
51
 10
21.0435
 20
-7.2271
 30
0.0000
  0
VERTEX
  8
51
 10
21.0435
 20
-7.3204
 30
0.0000
 42
1.0000
  0
VERTEX
  8
51
 10
21.0943
 20
-7.3204
 30
0.0000
  0
VERTEX
  8
51
 10
21.0943
 20
-7.2271
 30
0.0000
 42
1.0000
  0
SEQEND
  8
0
  0
POLYLINE
  8
51
 66
1
 10
0.0000
 20
0.0000
 30
0.0000
 40
0.0000
 41
0.0000
 70
1
  0
VERTEX
  8
51
 10
21.0510
 20
-7.3024
 30
0.0000
  0
VERTEX
  8
51
 10
20.9577
 20
-7.3956
 30
0.0000
 42
1.0000
  0
VERTEX
  8
51
 10
20.9937
 20
-7.4315
 30
0.0000
  0
VERTEX
  8
51
 10
21.0869
 20
-7.3383
 30
0.0000
 42
1.0000
  0
SEQEND
  8
0
  0
POLYLINE
  8
51
 66
1
 10
0.0000
 20
0.0000
 30
0.0000
 40
0.0000
 41
0.0000
 70
1
  0
VERTEX
  8
51
 10
20.9577
 20
-7.4315
 30
0.0000
  0
VERTEX
  8
51
 10
21.0510
 20
-7.5247
 30
0.0000
 42
1.0000
  0
VERTEX
  8
51
 10
21.0869
 20
-7.4888
 30
0.0000
  0
VERTEX
  8
51
 10
20.9937
 20
-7.3956
 30
0.0000
 42
1.0000
  0
SEQEND
  8
0
  0
POLYLINE
  8
51
 66
1
 10
0.0000
 20
0.0000
 30
0.0000
 40
0.0000
 41
0.0000
 70
1
  0
VERTEX
  8
51
 10
21.0435
 20
-7.5068
 30
0.0000
  0
VERTEX
  8
51
 10
21.0435
 20
-7.6000
 30
0.0000
 42
1.0000
  0
VERTEX
  8
51
 10
21.0943
 20
-7.6000
 30
0.0000
  0
VERTEX
  8
51
 10
21.0943
 20
-7.5068
 30
0.0000
 42
1.0000
  0
SEQEND
  8
0
  0
POLYLINE
  8
51
 66
1
 10
0.0000
 20
0.0000
 30
0.0000
 40
0.0000
 41
0.0000
 70
1
  0
VERTEX
  8
51
 10
21.0510
 20
-7.5820
 30
0.0000
  0
VERTEX
  8
51
 10
20.9577
 20
-7.6752
 30
0.0000
 42
1.0000
  0
VERTEX
  8
51
 10
20.9937
 20
-7.7112
 30
0.0000
  0
VERTEX
  8
51
 10
21.0869
 20
-7.6179
 30
0.0000
 42
1.0000
  0
SEQEND
  8
0
  0
POLYLINE
  8
51
 66
1
 10
0.0000
 20
0.0000
 30
0.0000
 40
0.0000
 41
0.0000
 70
1
  0
VERTEX
  8
51
 10
20.9757
 20
-7.6678
 30
0.0000
  0
VERTEX
  8
51
 10
20.7893
 20
-7.6678
 30
0.0000
 42
1.0000
  0
VERTEX
  8
51
 10
20.7893
 20
-7.7186
 30
0.0000
  0
VERTEX
  8
51
 10
20.9757
 20
-7.7186
 30
0.0000
 42
1.0000
  0
SEQEND
  8
0
  0
POLYLINE
  8
51
 66
1
 10
0.0000
 20
0.0000
 30
0.0000
 40
0.0000
 41
0.0000
 70
1
  0
VERTEX
  8
51
 10
20.8072
 20
-7.6752
 30
0.0000
  0
VERTEX
  8
51
 10
20.7140
 20
-7.5820
 30
0.0000
 42
1.0000
  0
VERTEX
  8
51
 10
20.6781
 20
-7.6179
 30
0.0000
  0
VERTEX
  8
51
 10
20.7713
 20
-7.7112
 30
0.0000
 42
1.0000
  0
SEQEND
  8
0
  0
POLYLINE
  8
51
 66
1
 10
0.0000
 20
0.0000
 30
0.0000
 40
0.0000
 41
0.0000
 70
1
  0
VERTEX
  8
51
 10
20.7215
 20
-7.6000
 30
0.0000
  0
VERTEX
  8
51
 10
20.7215
 20
-7.5068
 30
0.0000
 42
1.0000
  0
VERTEX
  8
51
 10
20.6707
 20
-7.5068
 30
0.0000
  0
VERTEX
  8
51
 10
20.6707
 20
-7.6000
 30
0.0000
 42
1.0000
  0
SEQEND
  8
0
  0
POLYLINE
  8
51
 66
1
 10
0.0000
 20
0.0000
 30
0.0000
 40
0.0000
 41
0.0000
 70
1
  0
VERTEX
  8
51
 10
20.7140
 20
-7.5247
 30
0.0000
  0
VERTEX
  8
51
 10
20.8072
 20
-7.4315
 30
0.0000
 42
1.0000
  0
VERTEX
  8
51
 10
20.7713
 20
-7.3956
 30
0.0000
  0
VERTEX
  8
51
 10
20.6781
 20
-7.4888
 30
0.0000
 42
1.0000
  0
SEQEND
  8
0
  0
POLYLINE
  8
51
 66
1
 10
0.0000
 20
0.0000
 30
0.0000
 40
0.0000
 41
0.0000
 70
1
  0
VERTEX
  8
51
 10
20.8072
 20
-7.3956
 30
0.0000
  0
VERTEX
  8
51
 10
20.7140
 20
-7.3024
 30
0.0000
 42
1.0000
  0
VERTEX
  8
51
 10
20.6781
 20
-7.3383
 30
0.0000
  0
VERTEX
  8
51
 10
20.7713
 20
-7.4315
 30
0.0000
 42
1.0000
  0
SEQEND
  8
0
  0
POLYLINE
  8
51
 66
1
 10
0.0000
 20
0.0000
 30
0.0000
 40
0.0000
 41
0.0000
 70
1
  0
VERTEX
  8
51
 10
20.7215
 20
-7.3204
 30
0.0000
  0
VERTEX
  8
51
 10
20.7215
 20
-7.2271
 30
0.0000
 42
1.0000
  0
VERTEX
  8
51
 10
20.6707
 20
-7.2271
 30
0.0000
  0
VERTEX
  8
51
 10
20.6707
 20
-7.3204
 30
0.0000
 42
1.0000
  0
SEQEND
  8
0
  0
POLYLINE
  8
51
 66
1
 10
0.0000
 20
0.0000
 30
0.0000
 40
0.0000
 41
0.0000
 70
1
  0
VERTEX
  8
51
 10
20.7893
 20
-7.4390
 30
0.0000
  0
VERTEX
  8
51
 10
20.9757
 20
-7.4390
 30
0.0000
 42
1.0000
  0
VERTEX
  8
51
 10
20.9757
 20
-7.3882
 30
0.0000
  0
VERTEX
  8
51
 10
20.7893
 20
-7.3882
 30
0.0000
 42
1.0000
  0
SEQEND
  8
0
  0
POLYLINE
  8
51
 66
1
 10
0.0000
 20
0.0000
 30
0.0000
 40
0.0000
 41
0.0000
 70
1
  0
VERTEX
  8
51
 10
21.2828
 20
-7.6932
 30
0.0000
  0
VERTEX
  8
51
 10
21.2828
 20
-7.6000
 30
0.0000
 42
1.0000
  0
VERTEX
  8
51
 10
21.2320
 20
-7.6000
 30
0.0000
  0
VERTEX
  8
51
 10
21.2320
 20
-7.6932
 30
0.0000
 42
1.0000
  0
SEQEND
  8
0
  0
POLYLINE
  8
51
 66
1
 10
0.0000
 20
0.0000
 30
0.0000
 40
0.0000
 41
0.0000
 70
1
  0
VERTEX
  8
51
 10
21.2574
 20
-7.6254
 30
0.0000
  0
VERTEX
  8
51
 10
21.3506
 20
-7.6254
 30
0.0000
 42
1.0000
  0
VERTEX
  8
51
 10
21.3506
 20
-7.5746
 30
0.0000
  0
VERTEX
  8
51
 10
21.2574
 20
-7.5746
 30
0.0000
 42
1.0000
  0
SEQEND
  8
0
  0
POLYLINE
  8
51
 66
1
 10
0.0000
 20
0.0000
 30
0.0000
 40
0.0000
 41
0.0000
 70
1
  0
VERTEX
  8
51
 10
21.3252
 20
-7.6000
 30
0.0000
  0
VERTEX
  8
51
 10
21.3252
 20
-7.6932
 30
0.0000
 42
1.0000
  0
VERTEX
  8
51
 10
21.3760
 20
-7.6932
 30
0.0000
  0
VERTEX
  8
51
 10
21.3760
 20
-7.6000
 30
0.0000
 42
1.0000
  0
SEQEND
  8
0
  0
POLYLINE
  8
51
 66
1
 10
0.0000
 20
0.0000
 30
0.0000
 40
0.0000
 41
0.0000
 70
1
  0
VERTEX
  8
51
 10
21.3506
 20
-7.6678
 30
0.0000
  0
VERTEX
  8
51
 10
21.2574
 20
-7.6678
 30
0.0000
 42
1.0000
  0
VERTEX
  8
51
 10
21.2574
 20
-7.7186
 30
0.0000
  0
VERTEX
  8
51
 10
21.3506
 20
-7.7186
 30
0.0000
 42
1.0000
  0
SEQEND
  8
0
  0
POLYLINE
  8
51
 66
1
 10
0.0000
 20
0.0000
 30
0.0000
 40
0.0000
 41
0.0000
 70
1
  0
VERTEX
  8
51
 10
21.5634
 20
-7.6000
 30
0.0000
  0
VERTEX
  8
51
 10
21.5634
 20
-7.2271
 30
0.0000
 42
1.0000
  0
VERTEX
  8
51
 10
21.5126
 20
-7.2271
 30
0.0000
  0
VERTEX
  8
51
 10
21.5126
 20
-7.6000
 30
0.0000
 42
1.0000
  0
SEQEND
  8
0
  0
POLYLINE
  8
51
 66
1
 10
0.0000
 20
0.0000
 30
0.0000
 40
0.0000
 41
0.0000
 70
1
  0
VERTEX
  8
51
 10
21.5560
 20
-7.2451
 30
0.0000
  0
VERTEX
  8
51
 10
21.6492
 20
-7.1519
 30
0.0000
 42
1.0000
  0
VERTEX
  8
51
 10
21.6133
 20
-7.1160
 30
0.0000
  0
VERTEX
  8
51
 10
21.5201
 20
-7.2092
 30
0.0000
 42
1.0000
  0
SEQEND
  8
0
  0
POLYLINE
  8
51
 66
1
 10
0.0000
 20
0.0000
 30
0.0000
 40
0.0000
 41
0.0000
 70
1
  0
VERTEX
  8
51
 10
21.6312
 20
-7.1593
 30
0.0000
  0
VERTEX
  8
51
 10
21.8177
 20
-7.1593
 30
0.0000
 42
1.0000
  0
VERTEX
  8
51
 10
21.8177
 20
-7.1085
 30
0.0000
  0
VERTEX
  8
51
 10
21.6312
 20
-7.1085
 30
0.0000
 42
1.0000
  0
SEQEND
  8
0
  0
POLYLINE
  8
51
 66
1
 10
0.0000
 20
0.0000
 30
0.0000
 40
0.0000
 41
0.0000
 70
1
  0
VERTEX
  8
51
 10
21.7997
 20
-7.1519
 30
0.0000
  0
VERTEX
  8
51
 10
21.8929
 20
-7.2451
 30
0.0000
 42
1.0000
  0
VERTEX
  8
51
 10
21.9288
 20
-7.2092
 30
0.0000
  0
VERTEX
  8
51
 10
21.8356
 20
-7.1160
 30
0.0000
 42
1.0000
  0
SEQEND
  8
0
  0
POLYLINE
  8
51
 66
1
 10
0.0000
 20
0.0000
 30
0.0000
 40
0.0000
 41
0.0000
 70
1
  0
VERTEX
  8
51
 10
21.8855
 20
-7.2271
 30
0.0000
  0
VERTEX
  8
51
 10
21.8855
 20
-7.6000
 30
0.0000
 42
1.0000
  0
VERTEX
  8
51
 10
21.9363
 20
-7.6000
 30
0.0000
  0
VERTEX
  8
51
 10
21.9363
 20
-7.2271
 30
0.0000
 42
1.0000
  0
SEQEND
  8
0
  0
POLYLINE
  8
51
 66
1
 10
0.0000
 20
0.0000
 30
0.0000
 40
0.0000
 41
0.0000
 70
1
  0
VERTEX
  8
51
 10
21.8929
 20
-7.5820
 30
0.0000
  0
VERTEX
  8
51
 10
21.7997
 20
-7.6752
 30
0.0000
 42
1.0000
  0
VERTEX
  8
51
 10
21.8356
 20
-7.7112
 30
0.0000
  0
VERTEX
  8
51
 10
21.9288
 20
-7.6179
 30
0.0000
 42
1.0000
  0
SEQEND
  8
0
  0
POLYLINE
  8
51
 66
1
 10
0.0000
 20
0.0000
 30
0.0000
 40
0.0000
 41
0.0000
 70
1
  0
VERTEX
  8
51
 10
21.8177
 20
-7.6678
 30
0.0000
  0
VERTEX
  8
51
 10
21.6312
 20
-7.6678
 30
0.0000
 42
1.0000
  0
VERTEX
  8
51
 10
21.6312
 20
-7.7186
 30
0.0000
  0
VERTEX
  8
51
 10
21.8177
 20
-7.7186
 30
0.0000
 42
1.0000
  0
SEQEND
  8
0
  0
POLYLINE
  8
51
 66
1
 10
0.0000
 20
0.0000
 30
0.0000
 40
0.0000
 41
0.0000
 70
1
  0
VERTEX
  8
51
 10
21.6492
 20
-7.6752
 30
0.0000
  0
VERTEX
  8
51
 10
21.5560
 20
-7.5820
 30
0.0000
 42
1.0000
  0
VERTEX
  8
51
 10
21.5201
 20
-7.6179
 30
0.0000
  0
VERTEX
  8
51
 10
21.6133
 20
-7.7112
 30
0.0000
 42
1.0000
  0
SEQEND
  8
0
  0
POLYLINE
  8
51
 66
1
 10
0.0000
 20
0.0000
 30
0.0000
 40
0.0000
 41
0.0000
 70
1
  0
VERTEX
  8
51
 10
21.5560
 20
-7.6179
 30
0.0000
  0
VERTEX
  8
51
 10
21.9288
 20
-7.2451
 30
0.0000
 42
1.0000
  0
VERTEX
  8
51
 10
21.8929
 20
-7.2092
 30
0.0000
  0
VERTEX
  8
51
 10
21.5201
 20
-7.5820
 30
0.0000
 42
1.0000
  0
SEQEND
  8
0
  0
POLYLINE
  8
51
 66
1
 10
0.0000
 20
0.0000
 30
0.0000
 40
0.0000
 41
0.0000
 70
1
  0
VERTEX
  8
51
 10
22.1173
 20
-7.3383
 30
0.0000
  0
VERTEX
  8
51
 10
22.3037
 20
-7.1519
 30
0.0000
 42
1.0000
  0
VERTEX
  8
51
 10
22.2678
 20
-7.1160
 30
0.0000
  0
VERTEX
  8
51
 10
22.0814
 20
-7.3024
 30
0.0000
 42
1.0000
  0
SEQEND
  8
0
  0
POLYLINE
  8
51
 66
1
 10
0.0000
 20
0.0000
 30
0.0000
 40
0.0000
 41
0.0000
 70
1
  0
VERTEX
  8
51
 10
22.2604
 20
-7.1339
 30
0.0000
  0
VERTEX
  8
51
 10
22.2604
 20
-7.6932
 30
0.0000
 42
1.0000
  0
VERTEX
  8
51
 10
22.3112
 20
-7.6932
 30
0.0000
  0
VERTEX
  8
51
 10
22.3112
 20
-7.1339
 30
0.0000
 42
1.0000
  0
SEQEND
  8
0
  0
POLYLINE
  8
51
 66
1
 10
0.0000
 20
0.0000
 30
0.0000
 40
0.0000
 41
0.0000
 70
1
  0
VERTEX
  8
51
 10
22.0993
 20
-7.7186
 30
0.0000
  0
VERTEX
  8
51
 10
22.4722
 20
-7.7186
 30
0.0000
 42
1.0000
  0
VERTEX
  8
51
 10
22.4722
 20
-7.6678
 30
0.0000
  0
VERTEX
  8
51
 10
22.0993
 20
-7.6678
 30
0.0000
 42
1.0000
  0
SEQEND
  8
0
  0
POLYLINE
  8
51
 66
1
 10
0.0000
 20
0.0000
 30
0.0000
 40
0.0000
 41
0.0000
 70
1
  0
VERTEX
  8
51
 10
45.2174
 20
45.1472
 30
0.0000
  0
VERTEX
  8
51
 10
53.2072
 20
45.1472
 30
0.0000
 42
1.0000
  0
VERTEX
  8
51
 10
53.2072
 20
45.2772
 30
0.0000
  0
VERTEX
  8
51
 10
45.2174
 20
45.2772
 30
0.0000
 42
1.0000
  0
SEQEND
  8
0
  0
POLYLINE
  8
51
 66
1
 10
0.0000
 20
0.0000
 30
0.0000
 40
0.0000
 41
0.0000
 70
1
  0
VERTEX
  8
51
 10
45.2174
 20
-2.8590
 30
0.0000
  0
VERTEX
  8
51
 10
53.2072
 20
-2.8590
 30
0.0000
 42
1.0000
  0
VERTEX
  8
51
 10
53.2072
 20
-2.7290
 30
0.0000
  0
VERTEX
  8
51
 10
45.2174
 20
-2.7290
 30
0.0000
 42
1.0000
  0
SEQEND
  8
0
  0
POLYLINE
  8
51
 66
1
 10
0.0000
 20
0.0000
 30
0.0000
 40
0.0000
 41
0.0000
 70
1
  0
VERTEX
  8
51
 10
51.1922
 20
45.2122
 30
0.0000
  0
VERTEX
  8
51
 10
51.1922
 20
-2.7940
 30
0.0000
 42
1.0000
  0
VERTEX
  8
51
 10
51.3222
 20
-2.7940
 30
0.0000
  0
VERTEX
  8
51
 10
51.3222
 20
45.2122
 30
0.0000
 42
1.0000
  0
SEQEND
  8
0
  0
POLYLINE
  8
51
 66
1
 10
0.0000
 20
0.0000
 30
0.0000
 40
0.0000
 41
0.0000
 70
1
  0
VERTEX
  8
51
 10
51.1927
 20
45.2201
 30
0.0000
  0
VERTEX
  8
51
 10
50.8734
 20
42.6201
 30
0.0000
 42
1.0000
  0
VERTEX
  8
51
 10
51.0025
 20
42.6043
 30
0.0000
  0
VERTEX
  8
51
 10
51.3217
 20
45.2043
 30
0.0000
 42
1.0000
  0
SEQEND
  8
0
  0
POLYLINE
  8
51
 66
1
 10
0.0000
 20
0.0000
 30
0.0000
 40
0.0000
 41
0.0000
 70
1
  0
VERTEX
  8
51
 10
50.9380
 20
42.5472
 30
0.0000
  0
VERTEX
  8
51
 10
51.5764
 20
42.5472
 30
0.0000
 42
1.0000
  0
VERTEX
  8
51
 10
51.5764
 20
42.6772
 30
0.0000
  0
VERTEX
  8
51
 10
50.9380
 20
42.6772
 30
0.0000
 42
1.0000
  0
SEQEND
  8
0
  0
POLYLINE
  8
51
 66
1
 10
0.0000
 20
0.0000
 30
0.0000
 40
0.0000
 41
0.0000
 70
1
  0
VERTEX
  8
51
 10
51.6410
 20
42.6201
 30
0.0000
  0
VERTEX
  8
51
 10
51.3217
 20
45.2201
 30
0.0000
 42
1.0000
  0
VERTEX
  8
51
 10
51.1927
 20
45.2043
 30
0.0000
  0
VERTEX
  8
51
 10
51.5119
 20
42.6043
 30
0.0000
 42
1.0000
  0
SEQEND
  8
0
  0
POLYLINE
  8
51
 66
1
 10
0.0000
 20
0.0000
 30
0.0000
 40
0.0000
 41
0.0000
 70
1
  0
VERTEX
  8
51
 10
51.1923
 20
45.2154
 30
0.0000
  0
VERTEX
  8
51
 10
51.0623
 20
42.6154
 30
0.0000
 42
1.0000
  0
VERTEX
  8
51
 10
51.1921
 20
42.6090
 30
0.0000
  0
VERTEX
  8
51
 10
51.3221
 20
45.2090
 30
0.0000
 42
1.0000
  0
SEQEND
  8
0
  0
POLYLINE
  8
51
 66
1
 10
0.0000
 20
0.0000
 30
0.0000
 40
0.0000
 41
0.0000
 70
1
  0
VERTEX
  8
51
 10
51.4521
 20
42.6154
 30
0.0000
  0
VERTEX
  8
51
 10
51.3221
 20
45.2154
 30
0.0000
 42
1.0000
  0
VERTEX
  8
51
 10
51.1923
 20
45.2090
 30
0.0000
  0
VERTEX
  8
51
 10
51.3223
 20
42.6090
 30
0.0000
 42
1.0000
  0
SEQEND
  8
0
  0
POLYLINE
  8
51
 66
1
 10
0.0000
 20
0.0000
 30
0.0000
 40
0.0000
 41
0.0000
 70
1
  0
VERTEX
  8
51
 10
51.1925
 20
45.2187
 30
0.0000
  0
VERTEX
  8
51
 10
50.9325
 20
42.6187
 30
0.0000
 42
1.0000
  0
VERTEX
  8
51
 10
51.0619
 20
42.6057
 30
0.0000
  0
VERTEX
  8
51
 10
51.3219
 20
45.2057
 30
0.0000
 42
1.0000
  0
SEQEND
  8
0
  0
POLYLINE
  8
51
 66
1
 10
0.0000
 20
0.0000
 30
0.0000
 40
0.0000
 41
0.0000
 70
1
  0
VERTEX
  8
51
 10
51.5819
 20
42.6187
 30
0.0000
  0
VERTEX
  8
51
 10
51.3219
 20
45.2187
 30
0.0000
 42
1.0000
  0
VERTEX
  8
51
 10
51.1925
 20
45.2057
 30
0.0000
  0
VERTEX
  8
51
 10
51.4525
 20
42.6057
 30
0.0000
 42
1.0000
  0
SEQEND
  8
0
  0
POLYLINE
  8
51
 66
1
 10
0.0000
 20
0.0000
 30
0.0000
 40
0.0000
 41
0.0000
 70
1
  0
VERTEX
  8
51
 10
51.3217
 20
-2.7861
 30
0.0000
  0
VERTEX
  8
51
 10
51.0025
 20
-0.1861
 30
0.0000
 42
1.0000
  0
VERTEX
  8
51
 10
50.8734
 20
-0.2019
 30
0.0000
  0
VERTEX
  8
51
 10
51.1927
 20
-2.8019
 30
0.0000
 42
1.0000
  0
SEQEND
  8
0
  0
POLYLINE
  8
51
 66
1
 10
0.0000
 20
0.0000
 30
0.0000
 40
0.0000
 41
0.0000
 70
1
  0
VERTEX
  8
51
 10
50.9380
 20
-0.2590
 30
0.0000
  0
VERTEX
  8
51
 10
51.5764
 20
-0.2590
 30
0.0000
 42
1.0000
  0
VERTEX
  8
51
 10
51.5764
 20
-0.1290
 30
0.0000
  0
VERTEX
  8
51
 10
50.9380
 20
-0.1290
 30
0.0000
 42
1.0000
  0
SEQEND
  8
0
  0
POLYLINE
  8
51
 66
1
 10
0.0000
 20
0.0000
 30
0.0000
 40
0.0000
 41
0.0000
 70
1
  0
VERTEX
  8
51
 10
51.5119
 20
-0.1861
 30
0.0000
  0
VERTEX
  8
51
 10
51.1927
 20
-2.7861
 30
0.0000
 42
1.0000
  0
VERTEX
  8
51
 10
51.3217
 20
-2.8019
 30
0.0000
  0
VERTEX
  8
51
 10
51.6410
 20
-0.2019
 30
0.0000
 42
1.0000
  0
SEQEND
  8
0
  0
POLYLINE
  8
51
 66
1
 10
0.0000
 20
0.0000
 30
0.0000
 40
0.0000
 41
0.0000
 70
1
  0
VERTEX
  8
51
 10
51.3221
 20
-2.7908
 30
0.0000
  0
VERTEX
  8
51
 10
51.1921
 20
-0.1908
 30
0.0000
 42
1.0000
  0
VERTEX
  8
51
 10
51.0623
 20
-0.1972
 30
0.0000
  0
VERTEX
  8
51
 10
51.1923
 20
-2.7972
 30
0.0000
 42
1.0000
  0
SEQEND
  8
0
  0
POLYLINE
  8
51
 66
1
 10
0.0000
 20
0.0000
 30
0.0000
 40
0.0000
 41
0.0000
 70
1
  0
VERTEX
  8
51
 10
51.3223
 20
-0.1908
 30
0.0000
  0
VERTEX
  8
51
 10
51.1923
 20
-2.7908
 30
0.0000
 42
1.0000
  0
VERTEX
  8
51
 10
51.3221
 20
-2.7972
 30
0.0000
  0
VERTEX
  8
51
 10
51.4521
 20
-0.1972
 30
0.0000
 42
1.0000
  0
SEQEND
  8
0
  0
POLYLINE
  8
51
 66
1
 10
0.0000
 20
0.0000
 30
0.0000
 40
0.0000
 41
0.0000
 70
1
  0
VERTEX
  8
51
 10
51.3219
 20
-2.7875
 30
0.0000
  0
VERTEX
  8
51
 10
51.0619
 20
-0.1875
 30
0.0000
 42
1.0000
  0
VERTEX
  8
51
 10
50.9325
 20
-0.2005
 30
0.0000
  0
VERTEX
  8
51
 10
51.1925
 20
-2.8005
 30
0.0000
 42
1.0000
  0
SEQEND
  8
0
  0
POLYLINE
  8
51
 66
1
 10
0.0000
 20
0.0000
 30
0.0000
 40
0.0000
 41
0.0000
 70
1
  0
VERTEX
  8
51
 10
51.4525
 20
-0.1875
 30
0.0000
  0
VERTEX
  8
51
 10
51.1925
 20
-2.7875
 30
0.0000
 42
1.0000
  0
VERTEX
  8
51
 10
51.3219
 20
-2.8005
 30
0.0000
  0
VERTEX
  8
51
 10
51.5819
 20
-0.2005
 30
0.0000
 42
1.0000
  0
SEQEND
  8
0
  0
POLYLINE
  8
51
 66
1
 10
0.0000
 20
0.0000
 30
0.0000
 40
0.0000
 41
0.0000
 70
1
  0
VERTEX
  8
51
 10
50.9494
 20
20.4372
 30
0.0000
  0
VERTEX
  8
51
 10
50.3901
 20
20.4372
 30
0.0000
 42
1.0000
  0
VERTEX
  8
51
 10
50.3901
 20
20.3864
 30
0.0000
  0
VERTEX
  8
51
 10
50.9494
 20
20.3864
 30
0.0000
 42
1.0000
  0
SEQEND
  8
0
  0
POLYLINE
  8
51
 66
1
 10
0.0000
 20
0.0000
 30
0.0000
 40
0.0000
 41
0.0000
 70
1
  0
VERTEX
  8
51
 10
50.3722
 20
20.3938
 30
0.0000
  0
VERTEX
  8
51
 10
50.6518
 20
20.1142
 30
0.0000
 42
1.0000
  0
VERTEX
  8
51
 10
50.6877
 20
20.1501
 30
0.0000
  0
VERTEX
  8
51
 10
50.4081
 20
20.4298
 30
0.0000
 42
1.0000
  0
SEQEND
  8
0
  0
POLYLINE
  8
51
 66
1
 10
0.0000
 20
0.0000
 30
0.0000
 40
0.0000
 41
0.0000
 70
1
  0
VERTEX
  8
51
 10
50.6952
 20
20.1322
 30
0.0000
  0
VERTEX
  8
51
 10
50.6952
 20
20.5050
 30
0.0000
 42
1.0000
  0
VERTEX
  8
51
 10
50.6444
 20
20.5050
 30
0.0000
  0
VERTEX
  8
51
 10
50.6444
 20
20.1322
 30
0.0000
 42
1.0000
  0
SEQEND
  8
0
  0
POLYLINE
  8
51
 66
1
 10
0.0000
 20
0.0000
 30
0.0000
 40
0.0000
 41
0.0000
 70
1
  0
VERTEX
  8
51
 10
50.5013
 20
20.7114
 30
0.0000
  0
VERTEX
  8
51
 10
50.4081
 20
20.8046
 30
0.0000
 42
1.0000
  0
VERTEX
  8
51
 10
50.3722
 20
20.7687
 30
0.0000
  0
VERTEX
  8
51
 10
50.4654
 20
20.6755
 30
0.0000
 42
1.0000
  0
SEQEND
  8
0
  0
POLYLINE
  8
51
 66
1
 10
0.0000
 20
0.0000
 30
0.0000
 40
0.0000
 41
0.0000
 70
1
  0
VERTEX
  8
51
 10
50.4155
 20
20.7867
 30
0.0000
  0
VERTEX
  8
51
 10
50.4155
 20
20.9731
 30
0.0000
 42
1.0000
  0
VERTEX
  8
51
 10
50.3647
 20
20.9731
 30
0.0000
  0
VERTEX
  8
51
 10
50.3647
 20
20.7867
 30
0.0000
 42
1.0000
  0
SEQEND
  8
0
  0
POLYLINE
  8
51
 66
1
 10
0.0000
 20
0.0000
 30
0.0000
 40
0.0000
 41
0.0000
 70
1
  0
VERTEX
  8
51
 10
50.4081
 20
20.9551
 30
0.0000
  0
VERTEX
  8
51
 10
50.5013
 20
21.0484
 30
0.0000
 42
1.0000
  0
VERTEX
  8
51
 10
50.4654
 20
21.0843
 30
0.0000
  0
VERTEX
  8
51
 10
50.3722
 20
20.9911
 30
0.0000
 42
1.0000
  0
SEQEND
  8
0
  0
POLYLINE
  8
51
 66
1
 10
0.0000
 20
0.0000
 30
0.0000
 40
0.0000
 41
0.0000
 70
1
  0
VERTEX
  8
51
 10
50.4833
 20
21.0409
 30
0.0000
  0
VERTEX
  8
51
 10
50.5766
 20
21.0409
 30
0.0000
 42
1.0000
  0
VERTEX
  8
51
 10
50.5766
 20
21.0917
 30
0.0000
  0
VERTEX
  8
51
 10
50.4833
 20
21.0917
 30
0.0000
 42
1.0000
  0
SEQEND
  8
0
  0
POLYLINE
  8
51
 66
1
 10
0.0000
 20
0.0000
 30
0.0000
 40
0.0000
 41
0.0000
 70
1
  0
VERTEX
  8
51
 10
50.5586
 20
21.0484
 30
0.0000
  0
VERTEX
  8
51
 10
50.6518
 20
20.9551
 30
0.0000
 42
1.0000
  0
VERTEX
  8
51
 10
50.6877
 20
20.9911
 30
0.0000
  0
VERTEX
  8
51
 10
50.5945
 20
21.0843
 30
0.0000
 42
1.0000
  0
SEQEND
  8
0
  0
POLYLINE
  8
51
 66
1
 10
0.0000
 20
0.0000
 30
0.0000
 40
0.0000
 41
0.0000
 70
1
  0
VERTEX
  8
51
 10
50.6877
 20
20.9551
 30
0.0000
  0
VERTEX
  8
51
 10
50.7809
 20
21.0484
 30
0.0000
 42
1.0000
  0
VERTEX
  8
51
 10
50.7450
 20
21.0843
 30
0.0000
  0
VERTEX
  8
51
 10
50.6518
 20
20.9911
 30
0.0000
 42
1.0000
  0
SEQEND
  8
0
  0
POLYLINE
  8
51
 66
1
 10
0.0000
 20
0.0000
 30
0.0000
 40
0.0000
 41
0.0000
 70
1
  0
VERTEX
  8
51
 10
50.7630
 20
21.0409
 30
0.0000
  0
VERTEX
  8
51
 10
50.8562
 20
21.0409
 30
0.0000
 42
1.0000
  0
VERTEX
  8
51
 10
50.8562
 20
21.0917
 30
0.0000
  0
VERTEX
  8
51
 10
50.7630
 20
21.0917
 30
0.0000
 42
1.0000
  0
SEQEND
  8
0
  0
POLYLINE
  8
51
 66
1
 10
0.0000
 20
0.0000
 30
0.0000
 40
0.0000
 41
0.0000
 70
1
  0
VERTEX
  8
51
 10
50.8382
 20
21.0484
 30
0.0000
  0
VERTEX
  8
51
 10
50.9314
 20
20.9551
 30
0.0000
 42
1.0000
  0
VERTEX
  8
51
 10
50.9674
 20
20.9911
 30
0.0000
  0
VERTEX
  8
51
 10
50.8741
 20
21.0843
 30
0.0000
 42
1.0000
  0
SEQEND
  8
0
  0
POLYLINE
  8
51
 66
1
 10
0.0000
 20
0.0000
 30
0.0000
 40
0.0000
 41
0.0000
 70
1
  0
VERTEX
  8
51
 10
50.9240
 20
20.9731
 30
0.0000
  0
VERTEX
  8
51
 10
50.9240
 20
20.7867
 30
0.0000
 42
1.0000
  0
VERTEX
  8
51
 10
50.9748
 20
20.7867
 30
0.0000
  0
VERTEX
  8
51
 10
50.9748
 20
20.9731
 30
0.0000
 42
1.0000
  0
SEQEND
  8
0
  0
POLYLINE
  8
51
 66
1
 10
0.0000
 20
0.0000
 30
0.0000
 40
0.0000
 41
0.0000
 70
1
  0
VERTEX
  8
51
 10
50.9314
 20
20.8046
 30
0.0000
  0
VERTEX
  8
51
 10
50.8382
 20
20.7114
 30
0.0000
 42
1.0000
  0
VERTEX
  8
51
 10
50.8741
 20
20.6755
 30
0.0000
  0
VERTEX
  8
51
 10
50.9674
 20
20.7687
 30
0.0000
 42
1.0000
  0
SEQEND
  8
0
  0
POLYLINE
  8
51
 66
1
 10
0.0000
 20
0.0000
 30
0.0000
 40
0.0000
 41
0.0000
 70
1
  0
VERTEX
  8
51
 10
50.8562
 20
20.7189
 30
0.0000
  0
VERTEX
  8
51
 10
50.7630
 20
20.7189
 30
0.0000
 42
1.0000
  0
VERTEX
  8
51
 10
50.7630
 20
20.6681
 30
0.0000
  0
VERTEX
  8
51
 10
50.8562
 20
20.6681
 30
0.0000
 42
1.0000
  0
SEQEND
  8
0
  0
POLYLINE
  8
51
 66
1
 10
0.0000
 20
0.0000
 30
0.0000
 40
0.0000
 41
0.0000
 70
1
  0
VERTEX
  8
51
 10
50.7809
 20
20.7114
 30
0.0000
  0
VERTEX
  8
51
 10
50.6877
 20
20.8046
 30
0.0000
 42
1.0000
  0
VERTEX
  8
51
 10
50.6518
 20
20.7687
 30
0.0000
  0
VERTEX
  8
51
 10
50.7450
 20
20.6755
 30
0.0000
 42
1.0000
  0
SEQEND
  8
0
  0
POLYLINE
  8
51
 66
1
 10
0.0000
 20
0.0000
 30
0.0000
 40
0.0000
 41
0.0000
 70
1
  0
VERTEX
  8
51
 10
50.6518
 20
20.8046
 30
0.0000
  0
VERTEX
  8
51
 10
50.5586
 20
20.7114
 30
0.0000
 42
1.0000
  0
VERTEX
  8
51
 10
50.5945
 20
20.6755
 30
0.0000
  0
VERTEX
  8
51
 10
50.6877
 20
20.7687
 30
0.0000
 42
1.0000
  0
SEQEND
  8
0
  0
POLYLINE
  8
51
 66
1
 10
0.0000
 20
0.0000
 30
0.0000
 40
0.0000
 41
0.0000
 70
1
  0
VERTEX
  8
51
 10
50.5766
 20
20.7189
 30
0.0000
  0
VERTEX
  8
51
 10
50.4833
 20
20.7189
 30
0.0000
 42
1.0000
  0
VERTEX
  8
51
 10
50.4833
 20
20.6681
 30
0.0000
  0
VERTEX
  8
51
 10
50.5766
 20
20.6681
 30
0.0000
 42
1.0000
  0
SEQEND
  8
0
  0
POLYLINE
  8
51
 66
1
 10
0.0000
 20
0.0000
 30
0.0000
 40
0.0000
 41
0.0000
 70
1
  0
VERTEX
  8
51
 10
50.6952
 20
20.7867
 30
0.0000
  0
VERTEX
  8
51
 10
50.6952
 20
20.9731
 30
0.0000
 42
1.0000
  0
VERTEX
  8
51
 10
50.6444
 20
20.9731
 30
0.0000
  0
VERTEX
  8
51
 10
50.6444
 20
20.7867
 30
0.0000
 42
1.0000
  0
SEQEND
  8
0
  0
POLYLINE
  8
51
 66
1
 10
0.0000
 20
0.0000
 30
0.0000
 40
0.0000
 41
0.0000
 70
1
  0
VERTEX
  8
51
 10
50.9494
 20
21.2802
 30
0.0000
  0
VERTEX
  8
51
 10
50.8562
 20
21.2802
 30
0.0000
 42
1.0000
  0
VERTEX
  8
51
 10
50.8562
 20
21.2294
 30
0.0000
  0
VERTEX
  8
51
 10
50.9494
 20
21.2294
 30
0.0000
 42
1.0000
  0
SEQEND
  8
0
  0
POLYLINE
  8
51
 66
1
 10
0.0000
 20
0.0000
 30
0.0000
 40
0.0000
 41
0.0000
 70
1
  0
VERTEX
  8
51
 10
50.8816
 20
21.2548
 30
0.0000
  0
VERTEX
  8
51
 10
50.8816
 20
21.3480
 30
0.0000
 42
1.0000
  0
VERTEX
  8
51
 10
50.8308
 20
21.3480
 30
0.0000
  0
VERTEX
  8
51
 10
50.8308
 20
21.2548
 30
0.0000
 42
1.0000
  0
SEQEND
  8
0
  0
POLYLINE
  8
51
 66
1
 10
0.0000
 20
0.0000
 30
0.0000
 40
0.0000
 41
0.0000
 70
1
  0
VERTEX
  8
51
 10
50.8562
 20
21.3226
 30
0.0000
  0
VERTEX
  8
51
 10
50.9494
 20
21.3226
 30
0.0000
 42
1.0000
  0
VERTEX
  8
51
 10
50.9494
 20
21.3734
 30
0.0000
  0
VERTEX
  8
51
 10
50.8562
 20
21.3734
 30
0.0000
 42
1.0000
  0
SEQEND
  8
0
  0
POLYLINE
  8
51
 66
1
 10
0.0000
 20
0.0000
 30
0.0000
 40
0.0000
 41
0.0000
 70
1
  0
VERTEX
  8
51
 10
50.9240
 20
21.3480
 30
0.0000
  0
VERTEX
  8
51
 10
50.9240
 20
21.2548
 30
0.0000
 42
1.0000
  0
VERTEX
  8
51
 10
50.9748
 20
21.2548
 30
0.0000
  0
VERTEX
  8
51
 10
50.9748
 20
21.3480
 30
0.0000
 42
1.0000
  0
SEQEND
  8
0
  0
POLYLINE
  8
51
 66
1
 10
0.0000
 20
0.0000
 30
0.0000
 40
0.0000
 41
0.0000
 70
1
  0
VERTEX
  8
51
 10
50.8562
 20
21.5608
 30
0.0000
  0
VERTEX
  8
51
 10
50.4833
 20
21.5608
 30
0.0000
 42
1.0000
  0
VERTEX
  8
51
 10
50.4833
 20
21.5100
 30
0.0000
  0
VERTEX
  8
51
 10
50.8562
 20
21.5100
 30
0.0000
 42
1.0000
  0
SEQEND
  8
0
  0
POLYLINE
  8
51
 66
1
 10
0.0000
 20
0.0000
 30
0.0000
 40
0.0000
 41
0.0000
 70
1
  0
VERTEX
  8
51
 10
50.5013
 20
21.5534
 30
0.0000
  0
VERTEX
  8
51
 10
50.4081
 20
21.6466
 30
0.0000
 42
1.0000
  0
VERTEX
  8
51
 10
50.3722
 20
21.6107
 30
0.0000
  0
VERTEX
  8
51
 10
50.4654
 20
21.5175
 30
0.0000
 42
1.0000
  0
SEQEND
  8
0
  0
POLYLINE
  8
51
 66
1
 10
0.0000
 20
0.0000
 30
0.0000
 40
0.0000
 41
0.0000
 70
1
  0
VERTEX
  8
51
 10
50.4155
 20
21.6286
 30
0.0000
  0
VERTEX
  8
51
 10
50.4155
 20
21.8151
 30
0.0000
 42
1.0000
  0
VERTEX
  8
51
 10
50.3647
 20
21.8151
 30
0.0000
  0
VERTEX
  8
51
 10
50.3647
 20
21.6286
 30
0.0000
 42
1.0000
  0
SEQEND
  8
0
  0
POLYLINE
  8
51
 66
1
 10
0.0000
 20
0.0000
 30
0.0000
 40
0.0000
 41
0.0000
 70
1
  0
VERTEX
  8
51
 10
50.4081
 20
21.7971
 30
0.0000
  0
VERTEX
  8
51
 10
50.5013
 20
21.8903
 30
0.0000
 42
1.0000
  0
VERTEX
  8
51
 10
50.4654
 20
21.9262
 30
0.0000
  0
VERTEX
  8
51
 10
50.3722
 20
21.8330
 30
0.0000
 42
1.0000
  0
SEQEND
  8
0
  0
POLYLINE
  8
51
 66
1
 10
0.0000
 20
0.0000
 30
0.0000
 40
0.0000
 41
0.0000
 70
1
  0
VERTEX
  8
51
 10
50.4833
 20
21.8829
 30
0.0000
  0
VERTEX
  8
51
 10
50.8562
 20
21.8829
 30
0.0000
 42
1.0000
  0
VERTEX
  8
51
 10
50.8562
 20
21.9337
 30
0.0000
  0
VERTEX
  8
51
 10
50.4833
 20
21.9337
 30
0.0000
 42
1.0000
  0
SEQEND
  8
0
  0
POLYLINE
  8
51
 66
1
 10
0.0000
 20
0.0000
 30
0.0000
 40
0.0000
 41
0.0000
 70
1
  0
VERTEX
  8
51
 10
50.8382
 20
21.8903
 30
0.0000
  0
VERTEX
  8
51
 10
50.9314
 20
21.7971
 30
0.0000
 42
1.0000
  0
VERTEX
  8
51
 10
50.9674
 20
21.8330
 30
0.0000
  0
VERTEX
  8
51
 10
50.8741
 20
21.9262
 30
0.0000
 42
1.0000
  0
SEQEND
  8
0
  0
POLYLINE
  8
51
 66
1
 10
0.0000
 20
0.0000
 30
0.0000
 40
0.0000
 41
0.0000
 70
1
  0
VERTEX
  8
51
 10
50.9240
 20
21.8151
 30
0.0000
  0
VERTEX
  8
51
 10
50.9240
 20
21.6286
 30
0.0000
 42
1.0000
  0
VERTEX
  8
51
 10
50.9748
 20
21.6286
 30
0.0000
  0
VERTEX
  8
51
 10
50.9748
 20
21.8151
 30
0.0000
 42
1.0000
  0
SEQEND
  8
0
  0
POLYLINE
  8
51
 66
1
 10
0.0000
 20
0.0000
 30
0.0000
 40
0.0000
 41
0.0000
 70
1
  0
VERTEX
  8
51
 10
50.9314
 20
21.6466
 30
0.0000
  0
VERTEX
  8
51
 10
50.8382
 20
21.5534
 30
0.0000
 42
1.0000
  0
VERTEX
  8
51
 10
50.8741
 20
21.5175
 30
0.0000
  0
VERTEX
  8
51
 10
50.9674
 20
21.6107
 30
0.0000
 42
1.0000
  0
SEQEND
  8
0
  0
POLYLINE
  8
51
 66
1
 10
0.0000
 20
0.0000
 30
0.0000
 40
0.0000
 41
0.0000
 70
1
  0
VERTEX
  8
51
 10
50.8741
 20
21.5534
 30
0.0000
  0
VERTEX
  8
51
 10
50.5013
 20
21.9262
 30
0.0000
 42
1.0000
  0
VERTEX
  8
51
 10
50.4654
 20
21.8903
 30
0.0000
  0
VERTEX
  8
51
 10
50.8382
 20
21.5175
 30
0.0000
 42
1.0000
  0
SEQEND
  8
0
  0
POLYLINE
  8
51
 66
1
 10
0.0000
 20
0.0000
 30
0.0000
 40
0.0000
 41
0.0000
 70
1
  0
VERTEX
  8
51
 10
50.5945
 20
22.1147
 30
0.0000
  0
VERTEX
  8
51
 10
50.4081
 20
22.3011
 30
0.0000
 42
1.0000
  0
VERTEX
  8
51
 10
50.3722
 20
22.2652
 30
0.0000
  0
VERTEX
  8
51
 10
50.5586
 20
22.0788
 30
0.0000
 42
1.0000
  0
SEQEND
  8
0
  0
POLYLINE
  8
51
 66
1
 10
0.0000
 20
0.0000
 30
0.0000
 40
0.0000
 41
0.0000
 70
1
  0
VERTEX
  8
51
 10
50.3901
 20
22.2578
 30
0.0000
  0
VERTEX
  8
51
 10
50.9494
 20
22.2578
 30
0.0000
 42
1.0000
  0
VERTEX
  8
51
 10
50.9494
 20
22.3086
 30
0.0000
  0
VERTEX
  8
51
 10
50.3901
 20
22.3086
 30
0.0000
 42
1.0000
  0
SEQEND
  8
0
  0
POLYLINE
  8
51
 66
1
 10
0.0000
 20
0.0000
 30
0.0000
 40
0.0000
 41
0.0000
 70
1
  0
VERTEX
  8
51
 10
50.9748
 20
22.0967
 30
0.0000
  0
VERTEX
  8
51
 10
50.9748
 20
22.4696
 30
0.0000
 42
1.0000
  0
VERTEX
  8
51
 10
50.9240
 20
22.4696
 30
0.0000
  0
VERTEX
  8
51
 10
50.9240
 20
22.0967
 30
0.0000
 42
1.0000
  0
SEQEND
  8
0
  0
CIRCLE
  8
20
 10
-0.1270
 20
-0.1270
 30
0.0000
 40
1.5000
  0
CIRCLE
  8
20
 10
42.5450
 20
42.5450
 30
0.0000
 40
1.5000
  0
CIRCLE
  8
20
 10
42.5450
 20
-0.1270
 30
0.0000
 40
1.5000
  0
CIRCLE
  8
20
 10
-0.1270
 20
42.5450
 30
0.0000
 40
1.5000
  0
INSERT
  8
51
  2
RECT
 10
10.2108
 20
33.9598
 30
0.0000
 41
0.3556
 42
0.8128
 43
1.0000
 50
270.0000
  0
INSERT
  8
51
  2
RECT
 10
10.2108
 20
33.0454
 30
0.0000
 41
0.3556
 42
0.8128
 43
1.0000
 50
270.0000
  0
INSERT
  8
51
  2
RECT
 10
7.8740
 20
30.1752
 30
0.0000
 41
0.3556
 42
1.0160
 43
1.0000
 50
180.0000
  0
INSERT
  8
51
  2
RECT
 10
6.6040
 20
30.1752
 30
0.0000
 41
0.3556
 42
1.0160
 43
1.0000
 50
180.0000
  0
INSERT
  8
51
  2
RECT
 10
5.3340
 20
30.1752
 30
0.0000
 41
0.3556
 42
1.0160
 43
1.0000
 50
180.0000
  0
INSERT
  8
51
  2
RECT
 10
4.0640
 20
30.1752
 30
0.0000
 41
0.3556
 42
1.0160
 43
1.0000
 50
180.0000
  0
INSERT
  8
51
  2
RECT
 10
7.8740
 20
25.1968
 30
0.0000
 41
0.3556
 42
1.0160
 43
1.0000
 50
180.0000
  0
INSERT
  8
51
  2
RECT
 10
6.6040
 20
25.1968
 30
0.0000
 41
0.3556
 42
1.0160
 43
1.0000
 50
180.0000
  0
INSERT
  8
51
  2
RECT
 10
5.3340
 20
25.1968
 30
0.0000
 41
0.3556
 42
1.0160
 43
1.0000
 50
180.0000
  0
INSERT
  8
51
  2
RECT
 10
4.0640
 20
25.1968
 30
0.0000
 41
0.3556
 42
1.0160
 43
1.0000
 50
180.0000
  0
INSERT
  8
51
  2
RECT
 10
5.0038
 20
32.9819
 30
0.0000
 41
0.2032
 42
0.8382
 43
1.0000
 50
0.0000
  0
INSERT
  8
51
  2
RECT
 10
5.6388
 20
32.9819
 30
0.0000
 41
0.2032
 42
0.8382
 43
1.0000
 50
0.0000
  0
INSERT
  8
51
  2
RECT
 10
5.6388
 20
32.9819
 30
0.0000
 41
0.2032
 42
0.8382
 43
1.0000
 50
0.0000
  0
INSERT
  8
51
  2
RECT
 10
6.2738
 20
32.9819
 30
0.0000
 41
0.2032
 42
0.8382
 43
1.0000
 50
0.0000
  0
INSERT
  8
51
  2
RECT
 10
6.9088
 20
32.9819
 30
0.0000
 41
0.2032
 42
0.8382
 43
1.0000
 50
0.0000
  0
INSERT
  8
51
  2
RECT
 10
6.9088
 20
32.9819
 30
0.0000
 41
0.2032
 42
0.8382
 43
1.0000
 50
0.0000
  0
INSERT
  8
51
  2
RECT
 10
7.5438
 20
32.9819
 30
0.0000
 41
0.2032
 42
0.8382
 43
1.0000
 50
0.0000
  0
INSERT
  8
51
  2
RECT
 10
8.1788
 20
32.9819
 30
0.0000
 41
0.2032
 42
0.8382
 43
1.0000
 50
0.0000
  0
INSERT
  8
51
  2
RECT
 10
8.1788
 20
32.9819
 30
0.0000
 41
0.2032
 42
0.8382
 43
1.0000
 50
0.0000
  0
INSERT
  8
51
  2
RECT
 10
8.8138
 20
32.9819
 30
0.0000
 41
0.2032
 42
0.8382
 43
1.0000
 50
0.0000
  0
INSERT
  8
51
  2
RECT
 10
8.8138
 20
38.0619
 30
0.0000
 41
0.2032
 42
0.8382
 43
1.0000
 50
0.0000
  0
INSERT
  8
51
  2
RECT
 10
8.1788
 20
38.0619
 30
0.0000
 41
0.2032
 42
0.8382
 43
1.0000
 50
0.0000
  0
INSERT
  8
51
  2
RECT
 10
7.5184
 20
38.0619
 30
0.0000
 41
0.2032
 42
0.8382
 43
1.0000
 50
0.0000
  0
INSERT
  8
51
  2
RECT
 10
7.5438
 20
38.0619
 30
0.0000
 41
0.2032
 42
0.8382
 43
1.0000
 50
0.0000
  0
INSERT
  8
51
  2
RECT
 10
6.9088
 20
38.0619
 30
0.0000
 41
0.2032
 42
0.8382
 43
1.0000
 50
0.0000
  0
INSERT
  8
51
  2
RECT
 10
6.9088
 20
38.0619
 30
0.0000
 41
0.2032
 42
0.8382
 43
1.0000
 50
0.0000
  0
INSERT
  8
51
  2
RECT
 10
6.2738
 20
38.0619
 30
0.0000
 41
0.2032
 42
0.8382
 43
1.0000
 50
0.0000
  0
INSERT
  8
51
  2
RECT
 10
5.6388
 20
38.0619
 30
0.0000
 41
0.2032
 42
0.8382
 43
1.0000
 50
0.0000
  0
INSERT
  8
51
  2
RECT
 10
5.6388
 20
38.0619
 30
0.0000
 41
0.2032
 42
0.8382
 43
1.0000
 50
0.0000
  0
INSERT
  8
51
  2
RECT
 10
5.0038
 20
38.0619
 30
0.0000
 41
0.2032
 42
0.8382
 43
1.0000
 50
0.0000
  0
INSERT
  8
51
  2
RECT
 10
21.2090
 20
35.2090
 30
0.0000
 41
2.6000
 42
5.4000
 43
1.0000
 50
90.0000
  0
INSERT
  8
51
  2
RECT
 10
19.0090
 20
34.0090
 30
0.0000
 41
5.0000
 42
1.0000
 43
1.0000
 50
90.0000
  0
INSERT
  8
51
  2
RECT
 10
23.4090
 20
34.0090
 30
0.0000
 41
5.0000
 42
1.0000
 43
1.0000
 50
90.0000
  0
INSERT
  8
51
  2
RECT
 10
21.2090
 20
34.0090
 30
0.0000
 41
5.0000
 42
1.0000
 43
1.0000
 50
90.0000
  0
INSERT
  8
51
  2
RECT
 10
19.0090
 20
10.1090
 30
0.0000
 41
2.0000
 42
1.0000
 43
1.0000
 50
90.0000
  0
INSERT
  8
51
  2
RECT
 10
21.2090
 20
10.1090
 30
0.0000
 41
2.0000
 42
1.0000
 43
1.0000
 50
90.0000
  0
INSERT
  8
51
  2
RECT
 10
23.4090
 20
10.1090
 30
0.0000
 41
2.0000
 42
1.0000
 43
1.0000
 50
90.0000
  0
CIRCLE
  8
20
 10
16.2090
 20
29.2090
 30
0.0000
 40
1.0000
  0
CIRCLE
  8
20
 10
16.2090
 20
13.2090
 30
0.0000
 40
1.0000
  0
INSERT
  8
51
  2
RECT
 10
35.5600
 20
25.2095
 30
0.0000
 41
3.2004
 42
1.8542
 43
1.0000
 50
180.0000
  0
INSERT
  8
51
  2
RECT
 10
35.5600
 20
30.6705
 30
0.0000
 41
0.8636
 42
1.8542
 43
1.0000
 50
180.0000
  0
INSERT
  8
51
  2
RECT
 10
37.8714
 20
30.6705
 30
0.0000
 41
0.8636
 42
1.8542
 43
1.0000
 50
180.0000
  0
INSERT
  8
51
  2
RECT
 10
33.2486
 20
30.6705
 30
0.0000
 41
0.8636
 42
1.8542
 43
1.0000
 50
180.0000
  0
INSERT
  8
51
  2
RECT
 10
35.5600
 20
25.2095
 30
0.0000
 41
3.2004
 42
1.8542
 43
1.0000
 50
180.0000
  0
INSERT
  8
51
  2
RECT
 10
35.5600
 20
30.6705
 30
0.0000
 41
0.8636
 42
1.8542
 43
1.0000
 50
180.0000
  0
INSERT
  8
51
  2
RECT
 10
37.8714
 20
30.6705
 30
0.0000
 41
0.8636
 42
1.8542
 43
1.0000
 50
180.0000
  0
INSERT
  8
51
  2
RECT
 10
33.2486
 20
30.6705
 30
0.0000
 41
0.8636
 42
1.8542
 43
1.0000
 50
180.0000
  0
INSERT
  8
51
  2
RECT
 10
27.6225
 20
5.3340
 30
0.0000
 41
3.2004
 42
1.8542
 43
1.0000
 50
90.0000
  0
INSERT
  8
51
  2
RECT
 10
33.0835
 20
5.3340
 30
0.0000
 41
0.8636
 42
1.8542
 43
1.0000
 50
90.0000
  0
INSERT
  8
51
  2
RECT
 10
33.0835
 20
3.0226
 30
0.0000
 41
0.8636
 42
1.8542
 43
1.0000
 50
90.0000
  0
INSERT
  8
51
  2
RECT
 10
33.0835
 20
7.6454
 30
0.0000
 41
0.8636
 42
1.8542
 43
1.0000
 50
90.0000
  0
INSERT
  8
51
  2
RECT
 10
27.6225
 20
5.3340
 30
0.0000
 41
3.2004
 42
1.8542
 43
1.0000
 50
90.0000
  0
INSERT
  8
51
  2
RECT
 10
33.0835
 20
5.3340
 30
0.0000
 41
0.8636
 42
1.8542
 43
1.0000
 50
90.0000
  0
INSERT
  8
51
  2
RECT
 10
33.0835
 20
3.0226
 30
0.0000
 41
0.8636
 42
1.8542
 43
1.0000
 50
90.0000
  0
INSERT
  8
51
  2
RECT
 10
33.0835
 20
7.6454
 30
0.0000
 41
0.8636
 42
1.8542
 43
1.0000
 50
90.0000
  0
INSERT
  8
51
  2
RECT
 10
15.0495
 20
5.4610
 30
0.0000
 41
3.2004
 42
1.8542
 43
1.0000
 50
270.0000
  0
INSERT
  8
51
  2
RECT
 10
9.5885
 20
5.4610
 30
0.0000
 41
0.8636
 42
1.8542
 43
1.0000
 50
270.0000
  0
INSERT
  8
51
  2
RECT
 10
9.5885
 20
7.7724
 30
0.0000
 41
0.8636
 42
1.8542
 43
1.0000
 50
270.0000
  0
INSERT
  8
51
  2
RECT
 10
9.5885
 20
3.1496
 30
0.0000
 41
0.8636
 42
1.8542
 43
1.0000
 50
270.0000
  0
INSERT
  8
51
  2
RECT
 10
15.0495
 20
5.4610
 30
0.0000
 41
3.2004
 42
1.8542
 43
1.0000
 50
270.0000
  0
INSERT
  8
51
  2
RECT
 10
9.5885
 20
5.4610
 30
0.0000
 41
0.8636
 42
1.8542
 43
1.0000
 50
270.0000
  0
INSERT
  8
51
  2
RECT
 10
9.5885
 20
7.7724
 30
0.0000
 41
0.8636
 42
1.8542
 43
1.0000
 50
270.0000
  0
INSERT
  8
51
  2
RECT
 10
9.5885
 20
3.1496
 30
0.0000
 41
0.8636
 42
1.8542
 43
1.0000
 50
270.0000
  0
INSERT
  8
51
  2
RECT
 10
2.6162
 20
33.6042
 30
0.0000
 41
0.3556
 42
0.8128
 43
1.0000
 50
90.0000
  0
INSERT
  8
51
  2
RECT
 10
2.6162
 20
34.5186
 30
0.0000
 41
0.3556
 42
0.8128
 43
1.0000
 50
90.0000
  0
INSERT
  8
51
  2
RECT
 10
9.8552
 20
38.6334
 30
0.0000
 41
0.3556
 42
0.8128
 43
1.0000
 50
90.0000
  0
INSERT
  8
51
  2
RECT
 10
9.8552
 20
39.5478
 30
0.0000
 41
0.3556
 42
0.8128
 43
1.0000
 50
90.0000
  0
INSERT
  8
51
  2
RECT
 10
11.4300
 20
38.6334
 30
0.0000
 41
0.3556
 42
0.8128
 43
1.0000
 50
90.0000
  0
INSERT
  8
51
  2
RECT
 10
11.4300
 20
39.5478
 30
0.0000
 41
0.3556
 42
0.8128
 43
1.0000
 50
90.0000
  0
INSERT
  8
51
  2
RECT
 10
13.0302
 20
38.6334
 30
0.0000
 41
0.3556
 42
0.8128
 43
1.0000
 50
90.0000
  0
INSERT
  8
51
  2
RECT
 10
13.0302
 20
39.5478
 30
0.0000
 41
0.3556
 42
0.8128
 43
1.0000
 50
90.0000
  0
INSERT
  8
51
  2
RECT
 10
14.5796
 20
39.5478
 30
0.0000
 41
0.3556
 42
0.8128
 43
1.0000
 50
270.0000
  0
INSERT
  8
51
  2
RECT
 10
14.5796
 20
38.6334
 30
0.0000
 41
0.3556
 42
0.8128
 43
1.0000
 50
270.0000
  0
POLYLINE
  8
51
 66
1
 10
0.0000
 20
0.0000
 30
0.0000
 40
0.0000
 41
0.0000
 70
1
  0
VERTEX
  8
51
 10
8.0500
 20
23.3076
 30
0.0000
  0
VERTEX
  8
51
 10
4.6500
 20
23.3076
 30
0.0000
 42
1.0000
  0
VERTEX
  8
51
 10
4.6500
 20
23.1044
 30
0.0000
  0
VERTEX
  8
51
 10
8.0500
 20
23.1044
 30
0.0000
 42
1.0000
  0
SEQEND
  8
0
  0
POLYLINE
  8
51
 66
1
 10
0.0000
 20
0.0000
 30
0.0000
 40
0.0000
 41
0.0000
 70
1
  0
VERTEX
  8
51
 10
4.5484
 20
23.2060
 30
0.0000
  0
VERTEX
  8
51
 10
4.5484
 20
22.0060
 30
0.0000
 42
1.0000
  0
VERTEX
  8
51
 10
4.7516
 20
22.0060
 30
0.0000
  0
VERTEX
  8
51
 10
4.7516
 20
23.2060
 30
0.0000
 42
1.0000
  0
SEQEND
  8
0
  0
POLYLINE
  8
51
 66
1
 10
0.0000
 20
0.0000
 30
0.0000
 40
0.0000
 41
0.0000
 70
1
  0
VERTEX
  8
51
 10
4.6500
 20
21.9044
 30
0.0000
  0
VERTEX
  8
51
 10
8.0500
 20
21.9044
 30
0.0000
 42
1.0000
  0
VERTEX
  8
51
 10
8.0500
 20
22.1076
 30
0.0000
  0
VERTEX
  8
51
 10
4.6500
 20
22.1076
 30
0.0000
 42
1.0000
  0
SEQEND
  8
0
  0
POLYLINE
  8
51
 66
1
 10
0.0000
 20
0.0000
 30
0.0000
 40
0.0000
 41
0.0000
 70
1
  0
VERTEX
  8
51
 10
8.1516
 20
22.0060
 30
0.0000
  0
VERTEX
  8
51
 10
8.1516
 20
23.2060
 30
0.0000
 42
1.0000
  0
VERTEX
  8
51
 10
7.9484
 20
23.2060
 30
0.0000
  0
VERTEX
  8
51
 10
7.9484
 20
22.0060
 30
0.0000
 42
1.0000
  0
SEQEND
  8
0
  0
INSERT
  8
51
  2
RECT
 10
16.2306
 20
38.6334
 30
0.0000
 41
0.3556
 42
0.8128
 43
1.0000
 50
90.0000
  0
INSERT
  8
51
  2
RECT
 10
16.2306
 20
39.5478
 30
0.0000
 41
0.3556
 42
0.8128
 43
1.0000
 50
90.0000
  0
INSERT
  8
51
  2
RECT
 10
3.7592
 20
20.0660
 30
0.0000
 41
0.3556
 42
0.8128
 43
1.0000
 50
180.0000
  0
INSERT
  8
51
  2
RECT
 10
2.8448
 20
20.0660
 30
0.0000
 41
0.3556
 42
0.8128
 43
1.0000
 50
180.0000
  0
POLYLINE
  8
51
 66
1
 10
0.0000
 20
0.0000
 30
0.0000
 40
0.0000
 41
0.0000
 70
1
  0
VERTEX
  8
51
 10
36.8806
 20
33.0710
 30
0.0000
  0
VERTEX
  8
51
 10
32.1316
 20
33.0710
 30
0.0000
 42
1.0000
  0
VERTEX
  8
51
 10
32.1316
 20
32.9186
 30
0.0000
  0
VERTEX
  8
51
 10
36.8806
 20
32.9186
 30
0.0000
 42
1.0000
  0
SEQEND
  8
0
  0
POLYLINE
  8
51
 66
1
 10
0.0000
 20
0.0000
 30
0.0000
 40
0.0000
 41
0.0000
 70
1
  0
VERTEX
  8
51
 10
36.8806
 20
36.0170
 30
0.0000
  0
VERTEX
  8
51
 10
32.1316
 20
36.0170
 30
0.0000
 42
1.0000
  0
VERTEX
  8
51
 10
32.1316
 20
35.8646
 30
0.0000
  0
VERTEX
  8
51
 10
36.8806
 20
35.8646
 30
0.0000
 42
1.0000
  0
SEQEND
  8
0
  0
INSERT
  8
51
  2
RECT
 10
37.2940
 20
34.4672
 30
0.0000
 41
0.8499
 42
3.1001
 43
1.0000
 50
180.0000
  0
INSERT
  8
51
  2
RECT
 10
31.7315
 20
34.4672
 30
0.0000
 41
0.8499
 42
3.1001
 43
1.0000
 50
180.0000
  0
POLYLINE
  8
51
 66
1
 10
0.0000
 20
0.0000
 30
0.0000
 40
0.0000
 41
0.0000
 70
1
  0
VERTEX
  8
51
 10
39.2428
 20
16.0780
 30
0.0000
  0
VERTEX
  8
51
 10
39.2428
 20
11.3290
 30
0.0000
 42
1.0000
  0
VERTEX
  8
51
 10
39.3952
 20
11.3290
 30
0.0000
  0
VERTEX
  8
51
 10
39.3952
 20
16.0780
 30
0.0000
 42
1.0000
  0
SEQEND
  8
0
  0
POLYLINE
  8
51
 66
1
 10
0.0000
 20
0.0000
 30
0.0000
 40
0.0000
 41
0.0000
 70
1
  0
VERTEX
  8
51
 10
36.2968
 20
16.0780
 30
0.0000
  0
VERTEX
  8
51
 10
36.2968
 20
11.3290
 30
0.0000
 42
1.0000
  0
VERTEX
  8
51
 10
36.4492
 20
11.3290
 30
0.0000
  0
VERTEX
  8
51
 10
36.4492
 20
16.0780
 30
0.0000
 42
1.0000
  0
SEQEND
  8
0
  0
INSERT
  8
51
  2
RECT
 10
37.8467
 20
16.4915
 30
0.0000
 41
0.8499
 42
3.1001
 43
1.0000
 50
270.0000
  0
INSERT
  8
51
  2
RECT
 10
37.8467
 20
10.9289
 30
0.0000
 41
0.8499
 42
3.1001
 43
1.0000
 50
270.0000
  0
POLYLINE
  8
51
 66
1
 10
0.0000
 20
0.0000
 30
0.0000
 40
0.0000
 41
0.0000
 70
1
  0
VERTEX
  8
51
 10
3.6070
 20
15.6208
 30
0.0000
  0
VERTEX
  8
51
 10
8.3560
 20
15.6208
 30
0.0000
 42
1.0000
  0
VERTEX
  8
51
 10
8.3560
 20
15.7732
 30
0.0000
  0
VERTEX
  8
51
 10
3.6070
 20
15.7732
 30
0.0000
 42
1.0000
  0
SEQEND
  8
0
  0
POLYLINE
  8
51
 66
1
 10
0.0000
 20
0.0000
 30
0.0000
 40
0.0000
 41
0.0000
 70
1
  0
VERTEX
  8
51
 10
3.6070
 20
12.6748
 30
0.0000
  0
VERTEX
  8
51
 10
8.3560
 20
12.6748
 30
0.0000
 42
1.0000
  0
VERTEX
  8
51
 10
8.3560
 20
12.8272
 30
0.0000
  0
VERTEX
  8
51
 10
3.6070
 20
12.8272
 30
0.0000
 42
1.0000
  0
SEQEND
  8
0
  0
INSERT
  8
51
  2
RECT
 10
3.1936
 20
14.2247
 30
0.0000
 41
0.8499
 42
3.1001
 43
1.0000
 50
0.0000
  0
INSERT
  8
51
  2
RECT
 10
8.7561
 20
14.2247
 30
0.0000
 41
0.8499
 42
3.1001
 43
1.0000
 50
0.0000
  0
POLYLINE
  8
51
 66
1
 10
0.0000
 20
0.0000
 30
0.0000
 40
0.0000
 41
0.0000
 70
1
  0
VERTEX
  8
51
 10
36.4492
 20
3.6070
 30
0.0000
  0
VERTEX
  8
51
 10
36.4492
 20
8.3560
 30
0.0000
 42
1.0000
  0
VERTEX
  8
51
 10
36.2968
 20
8.3560
 30
0.0000
  0
VERTEX
  8
51
 10
36.2968
 20
3.6070
 30
0.0000
 42
1.0000
  0
SEQEND
  8
0
  0
POLYLINE
  8
51
 66
1
 10
0.0000
 20
0.0000
 30
0.0000
 40
0.0000
 41
0.0000
 70
1
  0
VERTEX
  8
51
 10
39.3952
 20
3.6070
 30
0.0000
  0
VERTEX
  8
51
 10
39.3952
 20
8.3560
 30
0.0000
 42
1.0000
  0
VERTEX
  8
51
 10
39.2428
 20
8.3560
 30
0.0000
  0
VERTEX
  8
51
 10
39.2428
 20
3.6070
 30
0.0000
 42
1.0000
  0
SEQEND
  8
0
  0
INSERT
  8
51
  2
RECT
 10
37.8454
 20
3.1936
 30
0.0000
 41
0.8499
 42
3.1001
 43
1.0000
 50
90.0000
  0
INSERT
  8
51
  2
RECT
 10
37.8454
 20
8.7561
 30
0.0000
 41
0.8499
 42
3.1001
 43
1.0000
 50
90.0000
  0
POLYLINE
  8
51
 66
1
 10
0.0000
 20
0.0000
 30
0.0000
 40
0.0000
 41
0.0000
 70
1
  0
VERTEX
  8
51
 10
3.6070
 20
11.9378
 30
0.0000
  0
VERTEX
  8
51
 10
8.3560
 20
11.9378
 30
0.0000
 42
1.0000
  0
VERTEX
  8
51
 10
8.3560
 20
12.0902
 30
0.0000
  0
VERTEX
  8
51
 10
3.6070
 20
12.0902
 30
0.0000
 42
1.0000
  0
SEQEND
  8
0
  0
POLYLINE
  8
51
 66
1
 10
0.0000
 20
0.0000
 30
0.0000
 40
0.0000
 41
0.0000
 70
1
  0
VERTEX
  8
51
 10
3.6070
 20
8.9918
 30
0.0000
  0
VERTEX
  8
51
 10
8.3560
 20
8.9918
 30
0.0000
 42
1.0000
  0
VERTEX
  8
51
 10
8.3560
 20
9.1442
 30
0.0000
  0
VERTEX
  8
51
 10
3.6070
 20
9.1442
 30
0.0000
 42
1.0000
  0
SEQEND
  8
0
  0
INSERT
  8
51
  2
RECT
 10
3.1936
 20
10.5417
 30
0.0000
 41
0.8499
 42
3.1001
 43
1.0000
 50
0.0000
  0
INSERT
  8
51
  2
RECT
 10
8.7561
 20
10.5417
 30
0.0000
 41
0.8499
 42
3.1001
 43
1.0000
 50
0.0000
  0
POLYLINE
  8
51
 66
1
 10
0.0000
 20
0.0000
 30
0.0000
 40
0.0000
 41
0.0000
 70
1
  0
VERTEX
  8
51
 10
7.4676
 20
19.7485
 30
0.0000
  0
VERTEX
  8
51
 10
7.4676
 20
17.8308
 30
0.0000
 42
1.0000
  0
VERTEX
  8
51
 10
7.6200
 20
17.8308
 30
0.0000
  0
VERTEX
  8
51
 10
7.6200
 20
19.7485
 30
0.0000
 42
1.0000
  0
SEQEND
  8
0
  0
POLYLINE
  8
51
 66
1
 10
0.0000
 20
0.0000
 30
0.0000
 40
0.0000
 41
0.0000
 70
1
  0
VERTEX
  8
51
 10
5.8420
 20
19.7485
 30
0.0000
  0
VERTEX
  8
51
 10
5.8420
 20
17.8308
 30
0.0000
 42
1.0000
  0
VERTEX
  8
51
 10
5.9944
 20
17.8308
 30
0.0000
  0
VERTEX
  8
51
 10
5.9944
 20
19.7485
 30
0.0000
 42
1.0000
  0
SEQEND
  8
0
  0
INSERT
  8
51
  2
RECT
 10
6.7310
 20
17.4752
 30
0.0000
 41
0.7366
 42
1.7526
 43
1.0000
 50
90.0000
  0
INSERT
  8
51
  2
RECT
 10
6.7310
 20
20.1168
 30
0.0000
 41
0.7366
 42
1.7526
 43
1.0000
 50
90.0000
  0
POLYLINE
  8
51
 66
1
 10
0.0000
 20
0.0000
 30
0.0000
 40
0.0000
 41
0.0000
 70
1
  0
VERTEX
  8
51
 10
11.7874
 20
34.2742
 30
0.0000
  0
VERTEX
  8
51
 10
15.1874
 20
34.2742
 30
0.0000
 42
1.0000
  0
VERTEX
  8
51
 10
15.1874
 20
34.4774
 30
0.0000
  0
VERTEX
  8
51
 10
11.7874
 20
34.4774
 30
0.0000
 42
1.0000
  0
SEQEND
  8
0
  0
POLYLINE
  8
51
 66
1
 10
0.0000
 20
0.0000
 30
0.0000
 40
0.0000
 41
0.0000
 70
1
  0
VERTEX
  8
51
 10
15.2890
 20
34.3758
 30
0.0000
  0
VERTEX
  8
51
 10
15.2890
 20
35.5758
 30
0.0000
 42
1.0000
  0
VERTEX
  8
51
 10
15.0858
 20
35.5758
 30
0.0000
  0
VERTEX
  8
51
 10
15.0858
 20
34.3758
 30
0.0000
 42
1.0000
  0
SEQEND
  8
0
  0
POLYLINE
  8
51
 66
1
 10
0.0000
 20
0.0000
 30
0.0000
 40
0.0000
 41
0.0000
 70
1
  0
VERTEX
  8
51
 10
15.1874
 20
35.6774
 30
0.0000
  0
VERTEX
  8
51
 10
11.7874
 20
35.6774
 30
0.0000
 42
1.0000
  0
VERTEX
  8
51
 10
11.7874
 20
35.4742
 30
0.0000
  0
VERTEX
  8
51
 10
15.1874
 20
35.4742
 30
0.0000
 42
1.0000
  0
SEQEND
  8
0
  0
POLYLINE
  8
51
 66
1
 10
0.0000
 20
0.0000
 30
0.0000
 40
0.0000
 41
0.0000
 70
1
  0
VERTEX
  8
51
 10
11.6858
 20
35.5758
 30
0.0000
  0
VERTEX
  8
51
 10
11.6858
 20
34.3758
 30
0.0000
 42
1.0000
  0
VERTEX
  8
51
 10
11.8890
 20
34.3758
 30
0.0000
  0
VERTEX
  8
51
 10
11.8890
 20
35.5758
 30
0.0000
 42
1.0000
  0
SEQEND
  8
0
  0
POLYLINE
  8
51
 66
1
 10
0.0000
 20
0.0000
 30
0.0000
 40
0.0000
 41
0.0000
 70
1
  0
VERTEX
  8
51
 10
32.5880
 20
36.9572
 30
0.0000
  0
VERTEX
  8
51
 10
27.8390
 20
36.9572
 30
0.0000
 42
1.0000
  0
VERTEX
  8
51
 10
27.8390
 20
36.8048
 30
0.0000
  0
VERTEX
  8
51
 10
32.5880
 20
36.8048
 30
0.0000
 42
1.0000
  0
SEQEND
  8
0
  0
POLYLINE
  8
51
 66
1
 10
0.0000
 20
0.0000
 30
0.0000
 40
0.0000
 41
0.0000
 70
1
  0
VERTEX
  8
51
 10
32.5880
 20
39.9032
 30
0.0000
  0
VERTEX
  8
51
 10
27.8390
 20
39.9032
 30
0.0000
 42
1.0000
  0
VERTEX
  8
51
 10
27.8390
 20
39.7508
 30
0.0000
  0
VERTEX
  8
51
 10
32.5880
 20
39.7508
 30
0.0000
 42
1.0000
  0
SEQEND
  8
0
  0
INSERT
  8
51
  2
RECT
 10
33.0014
 20
38.3533
 30
0.0000
 41
0.8499
 42
3.1001
 43
1.0000
 50
180.0000
  0
INSERT
  8
51
  2
RECT
 10
27.4389
 20
38.3533
 30
0.0000
 41
0.8499
 42
3.1001
 43
1.0000
 50
180.0000
  0
ENDSEC
  0
EOF

