  0
SECTION
  2
HEADER
  9
$ACADVER
  1
AC1009
  9
$FILLMODE
 70
0
  9
$EXTMIN
 10
-288.6710
 20
-448.0989
 30
0.0000
  9
$EXTMAX
 10
459.4019
 20
128.0000
 30
0.0000
  0
ENDSEC
  0
SECTION
  2
TABLES
  0
TABLE
  2
LTYPE
 70
1
  0
LTYPE
  2
CONTINUOUS
 70
64
  3
Solid line
 72
65
 73
0
 40
0
  0
ENDTAB
  0
TABLE
  2
LAYER
 70
255
  0
LAYER
  2
20
 70
64
 62
7
  6
CONTINUOUS
  0
LAYER
  2
21
 70
64
 62
253
  6
CONTINUOUS
  0
LAYER
  2
51
 70
64
 62
253
  6
CONTINUOUS
  0
ENDTAB
  0
ENDSEC
  0
SECTION
  2
BLOCKS
  0
BLOCK
  8
0
  2
RECT
 70
64
 10
0.0000
 20
0.0000
 30
0.0000
  3
RECT
  0
SOLID
  8
0
 10
-0.5000
 20
-0.5000
 30
0.0000
 11
0.5000
 21
-0.5000
 31
0.0000
 12
-0.5000
 22
0.5000
 32
0.0000
 13
0.5000
 23
0.5000
 33
0.0000
  0
ENDBLK
  8
0
  0
BLOCK
  8
0
  2
PIE
 70
64
 10
0.0000
 20
0.0000
 30
0.0000
  3
PIE
  0
CIRCLE
  8
0
 10
0.0000
 20
0.0000
 30
0.0000
 40
0.5000
  0
ENDBLK
  8
0
  0
BLOCK
  8
0
  2
OCTAGONP
 70
64
 10
0.0000
 20
0.0000
 30
0.0000
  3
OCTAGONP
  0
POLYLINE
  8
0
 66
1
 10
0.0000
 20
0.0000
 30
0.0000
 40
0.0000
 41
0.0000
 70
1
  0
VERTEX
  8
0
 10
-0.5000
 20
-0.2071
 30
0.0000
  0
VERTEX
  8
0
 10
-0.5000
 20
0.2071
 30
0.0000
  0
VERTEX
  8
0
 10
-0.2071
 20
0.5000
 30
0.0000
  0
VERTEX
  8
0
 10
0.2071
 20
0.5000
 30
0.0000
  0
VERTEX
  8
0
 10
0.5000
 20
0.2071
 30
0.0000
  0
VERTEX
  8
0
 10
0.5000
 20
-0.2071
 30
0.0000
  0
VERTEX
  8
0
 10
0.2071
 20
-0.5000
 30
0.0000
  0
VERTEX
  8
0
 10
-0.2071
 20
-0.5000
 30
0.0000
  0
SEQEND
  8
0
  0
ENDBLK
  8
0
  0
BLOCK
  8
0
  2
SQUAREP
 70
64
 10
0.0000
 20
0.0000
 30
0.0000
  3
SQUAREP
  0
SOLID
  8
0
 10
-0.5000
 20
-0.5000
 30
0.0000
 11
0.5000
 21
-0.5000
 31
0.0000
 12
-0.5000
 22
0.5000
 32
0.0000
 13
0.5000
 23
0.5000
 33
0.0000
  0
ENDBLK
  8
0
  0
BLOCK
  8
0
  2
ROUNDP
 70
64
 10
0.0000
 20
0.0000
 30
0.0000
  3
ROUNDP
  0
CIRCLE
  8
0
 10
0.0000
 20
0.0000
 30
0.0000
 40
0.5000
  0
ENDBLK
  8
0
  0
BLOCK
  8
0
  2
ANNULUSP
 70
64
 10
0.0000
 20
0.0000
 30
0.0000
  3
ANNULUSP
  0
CIRCLE
  8
0
 10
0.0000
 20
0.0000
 30
0.0000
 40
0.5000
  0
ENDBLK
  8
0
  0
BLOCK
  8
0
  2
THERMALP
 70
64
 10
0.0000
 20
0.0000
 30
0.0000
  3
THERMALP
  0
POLYLINE
  8
0
 66
1
 10
0.0000
 20
0.0000
 30
0.0000
 40
0.0000
 41
0.0000
 70
1
  0
VERTEX
  8
0
 10
-0.2379
 20
0.4000
 30
0.0000
  0
VERTEX
  8
0
 10
0.2379
 20
0.4000
 30
0.0000
 42
1.0000
  0
VERTEX
  8
0
 10
0.2379
 20
0.5000
 30
0.0000
  0
VERTEX
  8
0
 10
-0.2379
 20
0.5000
 30
0.0000
 42
1.0000
  0
SEQEND
  8
0
  0
POLYLINE
  8
0
 66
1
 10
0.0000
 20
0.0000
 30
0.0000
 40
0.0000
 41
0.0000
 70
1
  0
VERTEX
  8
0
 10
0.4000
 20
0.2379
 30
0.0000
  0
VERTEX
  8
0
 10
0.4000
 20
-0.2379
 30
0.0000
 42
1.0000
  0
VERTEX
  8
0
 10
0.5000
 20
-0.2379
 30
0.0000
  0
VERTEX
  8
0
 10
0.5000
 20
0.2379
 30
0.0000
 42
1.0000
  0
SEQEND
  8
0
  0
POLYLINE
  8
0
 66
1
 10
0.0000
 20
0.0000
 30
0.0000
 40
0.0000
 41
0.0000
 70
1
  0
VERTEX
  8
0
 10
0.2379
 20
-0.4000
 30
0.0000
  0
VERTEX
  8
0
 10
-0.2379
 20
-0.4000
 30
0.0000
 42
1.0000
  0
VERTEX
  8
0
 10
-0.2379
 20
-0.5000
 30
0.0000
  0
VERTEX
  8
0
 10
0.2379
 20
-0.5000
 30
0.0000
 42
1.0000
  0
SEQEND
  8
0
  0
POLYLINE
  8
0
 66
1
 10
0.0000
 20
0.0000
 30
0.0000
 40
0.0000
 41
0.0000
 70
1
  0
VERTEX
  8
0
 10
-0.4000
 20
-0.2379
 30
0.0000
  0
VERTEX
  8
0
 10
-0.4000
 20
0.2379
 30
0.0000
 42
1.0000
  0
VERTEX
  8
0
 10
-0.5000
 20
0.2379
 30
0.0000
  0
VERTEX
  8
0
 10
-0.5000
 20
-0.2379
 30
0.0000
 42
1.0000
  0
SEQEND
  8
0
  0
ENDBLK
  8
0
  0
BLOCK
  8
0
  2
OCTAGONV
 70
64
 10
0.0000
 20
0.0000
 30
0.0000
  3
OCTAGONV
  0
POLYLINE
  8
0
 66
1
 10
0.0000
 20
0.0000
 30
0.0000
 40
0.0000
 41
0.0000
 70
1
  0
VERTEX
  8
0
 10
-0.5000
 20
-0.2071
 30
0.0000
  0
VERTEX
  8
0
 10
-0.5000
 20
0.2071
 30
0.0000
  0
VERTEX
  8
0
 10
-0.2071
 20
0.5000
 30
0.0000
  0
VERTEX
  8
0
 10
0.2071
 20
0.5000
 30
0.0000
  0
VERTEX
  8
0
 10
0.5000
 20
0.2071
 30
0.0000
  0
VERTEX
  8
0
 10
0.5000
 20
-0.2071
 30
0.0000
  0
VERTEX
  8
0
 10
0.2071
 20
-0.5000
 30
0.0000
  0
VERTEX
  8
0
 10
-0.2071
 20
-0.5000
 30
0.0000
  0
SEQEND
  8
0
  0
ENDBLK
  8
0
  0
BLOCK
  8
0
  2
SQUAREV
 70
64
 10
0.0000
 20
0.0000
 30
0.0000
  3
SQUAREV
  0
SOLID
  8
0
 10
-0.5000
 20
-0.5000
 30
0.0000
 11
0.5000
 21
-0.5000
 31
0.0000
 12
-0.5000
 22
0.5000
 32
0.0000
 13
0.5000
 23
0.5000
 33
0.0000
  0
ENDBLK
  8
0
  0
BLOCK
  8
0
  2
ROUNDV
 70
64
 10
0.0000
 20
0.0000
 30
0.0000
  3
ROUNDV
  0
CIRCLE
  8
0
 10
0.0000
 20
0.0000
 30
0.0000
 40
0.5000
  0
ENDBLK
  8
0
  0
BLOCK
  8
0
  2
ANNULUSV
 70
64
 10
0.0000
 20
0.0000
 30
0.0000
  3
ANNULUSV
  0
CIRCLE
  8
0
 10
0.0000
 20
0.0000
 30
0.0000
 40
0.5000
  0
ENDBLK
  8
0
  0
BLOCK
  8
0
  2
THERMALV
 70
64
 10
0.0000
 20
0.0000
 30
0.0000
  3
THERMALV
  0
POLYLINE
  8
0
 66
1
 10
0.0000
 20
0.0000
 30
0.0000
 40
0.0000
 41
0.0000
 70
1
  0
VERTEX
  8
0
 10
-0.2379
 20
0.4000
 30
0.0000
  0
VERTEX
  8
0
 10
0.2379
 20
0.4000
 30
0.0000
 42
1.0000
  0
VERTEX
  8
0
 10
0.2379
 20
0.5000
 30
0.0000
  0
VERTEX
  8
0
 10
-0.2379
 20
0.5000
 30
0.0000
 42
1.0000
  0
SEQEND
  8
0
  0
POLYLINE
  8
0
 66
1
 10
0.0000
 20
0.0000
 30
0.0000
 40
0.0000
 41
0.0000
 70
1
  0
VERTEX
  8
0
 10
0.4000
 20
0.2379
 30
0.0000
  0
VERTEX
  8
0
 10
0.4000
 20
-0.2379
 30
0.0000
 42
1.0000
  0
VERTEX
  8
0
 10
0.5000
 20
-0.2379
 30
0.0000
  0
VERTEX
  8
0
 10
0.5000
 20
0.2379
 30
0.0000
 42
1.0000
  0
SEQEND
  8
0
  0
POLYLINE
  8
0
 66
1
 10
0.0000
 20
0.0000
 30
0.0000
 40
0.0000
 41
0.0000
 70
1
  0
VERTEX
  8
0
 10
0.2379
 20
-0.4000
 30
0.0000
  0
VERTEX
  8
0
 10
-0.2379
 20
-0.4000
 30
0.0000
 42
1.0000
  0
VERTEX
  8
0
 10
-0.2379
 20
-0.5000
 30
0.0000
  0
VERTEX
  8
0
 10
0.2379
 20
-0.5000
 30
0.0000
 42
1.0000
  0
SEQEND
  8
0
  0
POLYLINE
  8
0
 66
1
 10
0.0000
 20
0.0000
 30
0.0000
 40
0.0000
 41
0.0000
 70
1
  0
VERTEX
  8
0
 10
-0.4000
 20
-0.2379
 30
0.0000
  0
VERTEX
  8
0
 10
-0.4000
 20
0.2379
 30
0.0000
 42
1.0000
  0
VERTEX
  8
0
 10
-0.5000
 20
0.2379
 30
0.0000
  0
VERTEX
  8
0
 10
-0.5000
 20
-0.2379
 30
0.0000
 42
1.0000
  0
SEQEND
  8
0
  0
ENDBLK
  8
0
  0
ENDSEC
  0
SECTION
  2
ENTITIES
  0
POLYLINE
  8
51
 66
1
 10
0.0000
 20
0.0000
 30
0.0000
 40
0.0000
 41
0.0000
 70
1
  0
VERTEX
  8
51
 10
244.2229
 20
-181.6705
 30
0.0000
  0
VERTEX
  8
51
 10
244.0907
 20
-231.3725
 30
0.0000
 42
1.0000
  0
VERTEX
  8
51
 10
244.2207
 20
-231.3728
 30
0.0000
  0
VERTEX
  8
51
 10
244.3529
 20
-181.6708
 30
0.0000
 42
1.0000
  0
SEQEND
  8
0
  0
POLYLINE
  8
51
 66
1
 10
0.0000
 20
0.0000
 30
0.0000
 40
0.0000
 41
0.0000
 70
1
  0
VERTEX
  8
51
 10
198.6231
 20
-181.5492
 30
0.0000
  0
VERTEX
  8
51
 10
198.4909
 20
-231.2512
 30
0.0000
 42
1.0000
  0
VERTEX
  8
51
 10
198.6209
 20
-231.2515
 30
0.0000
  0
VERTEX
  8
51
 10
198.7531
 20
-181.5495
 30
0.0000
 42
1.0000
  0
SEQEND
  8
0
  0
POLYLINE
  8
51
 66
1
 10
0.0000
 20
0.0000
 30
0.0000
 40
0.0000
 41
0.0000
 70
1
  0
VERTEX
  8
51
 10
244.1611
 20
-229.3576
 30
0.0000
  0
VERTEX
  8
51
 10
198.5613
 20
-229.2364
 30
0.0000
 42
1.0000
  0
VERTEX
  8
51
 10
198.5609
 20
-229.3664
 30
0.0000
  0
VERTEX
  8
51
 10
244.1607
 20
-229.4876
 30
0.0000
 42
1.0000
  0
SEQEND
  8
0
  0
POLYLINE
  8
51
 66
1
 10
0.0000
 20
0.0000
 30
0.0000
 40
0.0000
 41
0.0000
 70
1
  0
VERTEX
  8
51
 10
244.1690
 20
-229.3581
 30
0.0000
  0
VERTEX
  8
51
 10
241.5699
 20
-229.0320
 30
0.0000
 42
1.0000
  0
VERTEX
  8
51
 10
241.5537
 20
-229.1610
 30
0.0000
  0
VERTEX
  8
51
 10
244.1528
 20
-229.4871
 30
0.0000
 42
1.0000
  0
SEQEND
  8
0
  0
POLYLINE
  8
51
 66
1
 10
0.0000
 20
0.0000
 30
0.0000
 40
0.0000
 41
0.0000
 70
1
  0
VERTEX
  8
51
 10
241.4968
 20
-229.0963
 30
0.0000
  0
VERTEX
  8
51
 10
241.4951
 20
-229.7348
 30
0.0000
 42
1.0000
  0
VERTEX
  8
51
 10
241.6251
 20
-229.7351
 30
0.0000
  0
VERTEX
  8
51
 10
241.6268
 20
-229.0967
 30
0.0000
 42
1.0000
  0
SEQEND
  8
0
  0
POLYLINE
  8
51
 66
1
 10
0.0000
 20
0.0000
 30
0.0000
 40
0.0000
 41
0.0000
 70
1
  0
VERTEX
  8
51
 10
241.5678
 20
-229.7995
 30
0.0000
  0
VERTEX
  8
51
 10
244.1687
 20
-229.4872
 30
0.0000
 42
1.0000
  0
VERTEX
  8
51
 10
244.1532
 20
-229.3581
 30
0.0000
  0
VERTEX
  8
51
 10
241.5523
 20
-229.6704
 30
0.0000
 42
1.0000
  0
SEQEND
  8
0
  0
POLYLINE
  8
51
 66
1
 10
0.0000
 20
0.0000
 30
0.0000
 40
0.0000
 41
0.0000
 70
1
  0
VERTEX
  8
51
 10
244.1643
 20
-229.3577
 30
0.0000
  0
VERTEX
  8
51
 10
241.5647
 20
-229.2208
 30
0.0000
 42
1.0000
  0
VERTEX
  8
51
 10
241.5579
 20
-229.3506
 30
0.0000
  0
VERTEX
  8
51
 10
244.1575
 20
-229.4875
 30
0.0000
 42
1.0000
  0
SEQEND
  8
0
  0
POLYLINE
  8
51
 66
1
 10
0.0000
 20
0.0000
 30
0.0000
 40
0.0000
 41
0.0000
 70
1
  0
VERTEX
  8
51
 10
241.5637
 20
-229.6107
 30
0.0000
  0
VERTEX
  8
51
 10
244.1640
 20
-229.4876
 30
0.0000
 42
1.0000
  0
VERTEX
  8
51
 10
244.1578
 20
-229.3577
 30
0.0000
  0
VERTEX
  8
51
 10
241.5575
 20
-229.4808
 30
0.0000
 42
1.0000
  0
SEQEND
  8
0
  0
POLYLINE
  8
51
 66
1
 10
0.0000
 20
0.0000
 30
0.0000
 40
0.0000
 41
0.0000
 70
1
  0
VERTEX
  8
51
 10
244.1676
 20
-229.3580
 30
0.0000
  0
VERTEX
  8
51
 10
241.5683
 20
-229.0911
 30
0.0000
 42
1.0000
  0
VERTEX
  8
51
 10
241.5550
 20
-229.2204
 30
0.0000
  0
VERTEX
  8
51
 10
244.1543
 20
-229.4873
 30
0.0000
 42
1.0000
  0
SEQEND
  8
0
  0
POLYLINE
  8
51
 66
1
 10
0.0000
 20
0.0000
 30
0.0000
 40
0.0000
 41
0.0000
 70
1
  0
VERTEX
  8
51
 10
241.5665
 20
-229.7404
 30
0.0000
  0
VERTEX
  8
51
 10
244.1672
 20
-229.4873
 30
0.0000
 42
1.0000
  0
VERTEX
  8
51
 10
244.1546
 20
-229.3579
 30
0.0000
  0
VERTEX
  8
51
 10
241.5539
 20
-229.6110
 30
0.0000
 42
1.0000
  0
SEQEND
  8
0
  0
POLYLINE
  8
51
 66
1
 10
0.0000
 20
0.0000
 30
0.0000
 40
0.0000
 41
0.0000
 70
1
  0
VERTEX
  8
51
 10
198.5688
 20
-229.3659
 30
0.0000
  0
VERTEX
  8
51
 10
201.1697
 20
-229.0536
 30
0.0000
 42
1.0000
  0
VERTEX
  8
51
 10
201.1542
 20
-228.9245
 30
0.0000
  0
VERTEX
  8
51
 10
198.5533
 20
-229.2368
 30
0.0000
 42
1.0000
  0
SEQEND
  8
0
  0
POLYLINE
  8
51
 66
1
 10
0.0000
 20
0.0000
 30
0.0000
 40
0.0000
 41
0.0000
 70
1
  0
VERTEX
  8
51
 10
201.0969
 20
-228.9889
 30
0.0000
  0
VERTEX
  8
51
 10
201.0952
 20
-229.6273
 30
0.0000
 42
1.0000
  0
VERTEX
  8
51
 10
201.2252
 20
-229.6277
 30
0.0000
  0
VERTEX
  8
51
 10
201.2269
 20
-228.9892
 30
0.0000
 42
1.0000
  0
SEQEND
  8
0
  0
POLYLINE
  8
51
 66
1
 10
0.0000
 20
0.0000
 30
0.0000
 40
0.0000
 41
0.0000
 70
1
  0
VERTEX
  8
51
 10
201.1683
 20
-229.5630
 30
0.0000
  0
VERTEX
  8
51
 10
198.5692
 20
-229.2369
 30
0.0000
 42
1.0000
  0
VERTEX
  8
51
 10
198.5530
 20
-229.3659
 30
0.0000
  0
VERTEX
  8
51
 10
201.1521
 20
-229.6920
 30
0.0000
 42
1.0000
  0
SEQEND
  8
0
  0
POLYLINE
  8
51
 66
1
 10
0.0000
 20
0.0000
 30
0.0000
 40
0.0000
 41
0.0000
 70
1
  0
VERTEX
  8
51
 10
198.5642
 20
-229.3663
 30
0.0000
  0
VERTEX
  8
51
 10
201.1645
 20
-229.2432
 30
0.0000
 42
1.0000
  0
VERTEX
  8
51
 10
201.1583
 20
-229.1134
 30
0.0000
  0
VERTEX
  8
51
 10
198.5580
 20
-229.2364
 30
0.0000
 42
1.0000
  0
SEQEND
  8
0
  0
POLYLINE
  8
51
 66
1
 10
0.0000
 20
0.0000
 30
0.0000
 40
0.0000
 41
0.0000
 70
1
  0
VERTEX
  8
51
 10
201.1641
 20
-229.3734
 30
0.0000
  0
VERTEX
  8
51
 10
198.5645
 20
-229.2365
 30
0.0000
 42
1.0000
  0
VERTEX
  8
51
 10
198.5577
 20
-229.3663
 30
0.0000
  0
VERTEX
  8
51
 10
201.1573
 20
-229.5032
 30
0.0000
 42
1.0000
  0
SEQEND
  8
0
  0
POLYLINE
  8
51
 66
1
 10
0.0000
 20
0.0000
 30
0.0000
 40
0.0000
 41
0.0000
 70
1
  0
VERTEX
  8
51
 10
198.5674
 20
-229.3661
 30
0.0000
  0
VERTEX
  8
51
 10
201.1681
 20
-229.1130
 30
0.0000
 42
1.0000
  0
VERTEX
  8
51
 10
201.1555
 20
-228.9836
 30
0.0000
  0
VERTEX
  8
51
 10
198.5548
 20
-229.2367
 30
0.0000
 42
1.0000
  0
SEQEND
  8
0
  0
POLYLINE
  8
51
 66
1
 10
0.0000
 20
0.0000
 30
0.0000
 40
0.0000
 41
0.0000
 70
1
  0
VERTEX
  8
51
 10
201.1670
 20
-229.5036
 30
0.0000
  0
VERTEX
  8
51
 10
198.5677
 20
-229.2367
 30
0.0000
 42
1.0000
  0
VERTEX
  8
51
 10
198.5544
 20
-229.3660
 30
0.0000
  0
VERTEX
  8
51
 10
201.1537
 20
-229.6329
 30
0.0000
 42
1.0000
  0
SEQEND
  8
0
  0
POLYLINE
  8
51
 66
1
 10
0.0000
 20
0.0000
 30
0.0000
 40
0.0000
 41
0.0000
 70
1
  0
VERTEX
  8
51
 10
221.5530
 20
-181.9292
 30
0.0000
  0
VERTEX
  8
51
 10
221.5530
 20
-181.2908
 30
0.0000
 42
1.0000
  0
VERTEX
  8
51
 10
221.4230
 20
-181.2908
 30
0.0000
  0
VERTEX
  8
51
 10
221.4230
 20
-181.9292
 30
0.0000
 42
1.0000
  0
SEQEND
  8
0
  0
POLYLINE
  8
51
 66
1
 10
0.0000
 20
0.0000
 30
0.0000
 40
0.0000
 41
0.0000
 70
1
  0
VERTEX
  8
51
 10
221.1688
 20
-181.6750
 30
0.0000
  0
VERTEX
  8
51
 10
221.8072
 20
-181.6750
 30
0.0000
 42
1.0000
  0
VERTEX
  8
51
 10
221.8072
 20
-181.5450
 30
0.0000
  0
VERTEX
  8
51
 10
221.1688
 20
-181.5450
 30
0.0000
 42
1.0000
  0
SEQEND
  8
0
  0
POLYLINE
  8
51
 66
1
 10
0.0000
 20
0.0000
 30
0.0000
 40
0.0000
 41
0.0000
 70
1
  0
VERTEX
  8
51
 10
219.8473
 20
-228.7081
 30
0.0000
  0
VERTEX
  8
51
 10
219.8530
 20
-227.0811
 30
0.0000
 42
1.0000
  0
VERTEX
  8
51
 10
219.7006
 20
-227.0806
 30
0.0000
  0
VERTEX
  8
51
 10
219.6949
 20
-228.7075
 30
0.0000
 42
1.0000
  0
SEQEND
  8
0
  0
POLYLINE
  8
51
 66
1
 10
0.0000
 20
0.0000
 30
0.0000
 40
0.0000
 41
0.0000
 70
1
  0
VERTEX
  8
51
 10
219.7231
 20
-227.0268
 30
0.0000
  0
VERTEX
  8
51
 10
218.9068
 20
-227.8374
 30
0.0000
 42
1.0000
  0
VERTEX
  8
51
 10
219.0141
 20
-227.9455
 30
0.0000
  0
VERTEX
  8
51
 10
219.8305
 20
-227.1349
 30
0.0000
 42
1.0000
  0
SEQEND
  8
0
  0
POLYLINE
  8
51
 66
1
 10
0.0000
 20
0.0000
 30
0.0000
 40
0.0000
 41
0.0000
 70
1
  0
VERTEX
  8
51
 10
218.9602
 20
-227.9677
 30
0.0000
  0
VERTEX
  8
51
 10
220.0448
 20
-227.9715
 30
0.0000
 42
1.0000
  0
VERTEX
  8
51
 10
220.0454
 20
-227.8191
 30
0.0000
  0
VERTEX
  8
51
 10
218.9607
 20
-227.8153
 30
0.0000
 42
1.0000
  0
SEQEND
  8
0
  0
POLYLINE
  8
51
 66
1
 10
0.0000
 20
0.0000
 30
0.0000
 40
0.0000
 41
0.0000
 70
1
  0
VERTEX
  8
51
 10
221.6854
 20
-227.0113
 30
0.0000
  0
VERTEX
  8
51
 10
220.6007
 20
-227.0075
 30
0.0000
 42
1.0000
  0
VERTEX
  8
51
 10
220.6002
 20
-227.1599
 30
0.0000
  0
VERTEX
  8
51
 10
221.6848
 20
-227.1637
 30
0.0000
 42
1.0000
  0
SEQEND
  8
0
  0
POLYLINE
  8
51
 66
1
 10
0.0000
 20
0.0000
 30
0.0000
 40
0.0000
 41
0.0000
 70
1
  0
VERTEX
  8
51
 10
220.5242
 20
-227.0834
 30
0.0000
  0
VERTEX
  8
51
 10
220.5214
 20
-227.8969
 30
0.0000
 42
1.0000
  0
VERTEX
  8
51
 10
220.6738
 20
-227.8975
 30
0.0000
  0
VERTEX
  8
51
 10
220.6766
 20
-227.0840
 30
0.0000
 42
1.0000
  0
SEQEND
  8
0
  0
POLYLINE
  8
51
 66
1
 10
0.0000
 20
0.0000
 30
0.0000
 40
0.0000
 41
0.0000
 70
1
  0
VERTEX
  8
51
 10
220.6314
 20
-227.9655
 30
0.0000
  0
VERTEX
  8
51
 10
221.1747
 20
-227.6962
 30
0.0000
 42
1.0000
  0
VERTEX
  8
51
 10
221.1070
 20
-227.5596
 30
0.0000
  0
VERTEX
  8
51
 10
220.5638
 20
-227.8289
 30
0.0000
 42
1.0000
  0
SEQEND
  8
0
  0
POLYLINE
  8
51
 66
1
 10
0.0000
 20
0.0000
 30
0.0000
 40
0.0000
 41
0.0000
 70
1
  0
VERTEX
  8
51
 10
221.1406
 20
-227.7041
 30
0.0000
  0
VERTEX
  8
51
 10
221.4118
 20
-227.7051
 30
0.0000
 42
1.0000
  0
VERTEX
  8
51
 10
221.4123
 20
-227.5527
 30
0.0000
  0
VERTEX
  8
51
 10
221.1411
 20
-227.5517
 30
0.0000
 42
1.0000
  0
SEQEND
  8
0
  0
POLYLINE
  8
51
 66
1
 10
0.0000
 20
0.0000
 30
0.0000
 40
0.0000
 41
0.0000
 70
1
  0
VERTEX
  8
51
 10
221.3580
 20
-227.6826
 30
0.0000
  0
VERTEX
  8
51
 10
221.6282
 20
-227.9547
 30
0.0000
 42
1.0000
  0
VERTEX
  8
51
 10
221.7363
 20
-227.8473
 30
0.0000
  0
VERTEX
  8
51
 10
221.4661
 20
-227.5752
 30
0.0000
 42
1.0000
  0
SEQEND
  8
0
  0
POLYLINE
  8
51
 66
1
 10
0.0000
 20
0.0000
 30
0.0000
 40
0.0000
 41
0.0000
 70
1
  0
VERTEX
  8
51
 10
221.6060
 20
-227.9007
 30
0.0000
  0
VERTEX
  8
51
 10
221.6042
 20
-228.4430
 30
0.0000
 42
1.0000
  0
VERTEX
  8
51
 10
221.7565
 20
-228.4436
 30
0.0000
  0
VERTEX
  8
51
 10
221.7584
 20
-227.9012
 30
0.0000
 42
1.0000
  0
SEQEND
  8
0
  0
POLYLINE
  8
51
 66
1
 10
0.0000
 20
0.0000
 30
0.0000
 40
0.0000
 41
0.0000
 70
1
  0
VERTEX
  8
51
 10
221.6267
 20
-228.3892
 30
0.0000
  0
VERTEX
  8
51
 10
221.3545
 20
-228.6594
 30
0.0000
 42
1.0000
  0
VERTEX
  8
51
 10
221.4619
 20
-228.7676
 30
0.0000
  0
VERTEX
  8
51
 10
221.7340
 20
-228.4974
 30
0.0000
 42
1.0000
  0
SEQEND
  8
0
  0
POLYLINE
  8
51
 66
1
 10
0.0000
 20
0.0000
 30
0.0000
 40
0.0000
 41
0.0000
 70
1
  0
VERTEX
  8
51
 10
221.4085
 20
-228.6373
 30
0.0000
  0
VERTEX
  8
51
 10
220.8662
 20
-228.6354
 30
0.0000
 42
1.0000
  0
VERTEX
  8
51
 10
220.8656
 20
-228.7878
 30
0.0000
  0
VERTEX
  8
51
 10
221.4080
 20
-228.7897
 30
0.0000
 42
1.0000
  0
SEQEND
  8
0
  0
POLYLINE
  8
51
 66
1
 10
0.0000
 20
0.0000
 30
0.0000
 40
0.0000
 41
0.0000
 70
1
  0
VERTEX
  8
51
 10
220.9200
 20
-228.6579
 30
0.0000
  0
VERTEX
  8
51
 10
220.6498
 20
-228.3858
 30
0.0000
 42
1.0000
  0
VERTEX
  8
51
 10
220.5416
 20
-228.4932
 30
0.0000
  0
VERTEX
  8
51
 10
220.8118
 20
-228.7653
 30
0.0000
 42
1.0000
  0
SEQEND
  8
0
  0
POLYLINE
  8
51
 66
1
 10
0.0000
 20
0.0000
 30
0.0000
 40
0.0000
 41
0.0000
 70
1
  0
VERTEX
  8
51
 10
222.3081
 20
-228.7167
 30
0.0000
  0
VERTEX
  8
51
 10
222.3090
 20
-228.4455
 30
0.0000
 42
1.0000
  0
VERTEX
  8
51
 10
222.1566
 20
-228.4450
 30
0.0000
  0
VERTEX
  8
51
 10
222.1557
 20
-228.7161
 30
0.0000
 42
1.0000
  0
SEQEND
  8
0
  0
POLYLINE
  8
51
 66
1
 10
0.0000
 20
0.0000
 30
0.0000
 40
0.0000
 41
0.0000
 70
1
  0
VERTEX
  8
51
 10
222.2326
 20
-228.5214
 30
0.0000
  0
VERTEX
  8
51
 10
222.5037
 20
-228.5224
 30
0.0000
 42
1.0000
  0
VERTEX
  8
51
 10
222.5043
 20
-228.3700
 30
0.0000
  0
VERTEX
  8
51
 10
222.2331
 20
-228.3690
 30
0.0000
 42
1.0000
  0
SEQEND
  8
0
  0
POLYLINE
  8
51
 66
1
 10
0.0000
 20
0.0000
 30
0.0000
 40
0.0000
 41
0.0000
 70
1
  0
VERTEX
  8
51
 10
222.4278
 20
-228.4459
 30
0.0000
  0
VERTEX
  8
51
 10
222.4269
 20
-228.7171
 30
0.0000
 42
1.0000
  0
VERTEX
  8
51
 10
222.5793
 20
-228.7176
 30
0.0000
  0
VERTEX
  8
51
 10
222.5802
 20
-228.4464
 30
0.0000
 42
1.0000
  0
SEQEND
  8
0
  0
POLYLINE
  8
51
 66
1
 10
0.0000
 20
0.0000
 30
0.0000
 40
0.0000
 41
0.0000
 70
1
  0
VERTEX
  8
51
 10
222.5033
 20
-228.6411
 30
0.0000
  0
VERTEX
  8
51
 10
222.2322
 20
-228.6402
 30
0.0000
 42
1.0000
  0
VERTEX
  8
51
 10
222.2316
 20
-228.7926
 30
0.0000
  0
VERTEX
  8
51
 10
222.5028
 20
-228.7935
 30
0.0000
 42
1.0000
  0
SEQEND
  8
0
  0
POLYLINE
  8
51
 66
1
 10
0.0000
 20
0.0000
 30
0.0000
 40
0.0000
 41
0.0000
 70
1
  0
VERTEX
  8
51
 10
224.1070
 20
-227.0278
 30
0.0000
  0
VERTEX
  8
51
 10
223.5637
 20
-227.2971
 30
0.0000
 42
1.0000
  0
VERTEX
  8
51
 10
223.6314
 20
-227.4336
 30
0.0000
  0
VERTEX
  8
51
 10
224.1746
 20
-227.1643
 30
0.0000
 42
1.0000
  0
SEQEND
  8
0
  0
POLYLINE
  8
51
 66
1
 10
0.0000
 20
0.0000
 30
0.0000
 40
0.0000
 41
0.0000
 70
1
  0
VERTEX
  8
51
 10
223.5438
 20
-227.3113
 30
0.0000
  0
VERTEX
  8
51
 10
222.9996
 20
-227.8517
 30
0.0000
 42
1.0000
  0
VERTEX
  8
51
 10
223.1070
 20
-227.9598
 30
0.0000
  0
VERTEX
  8
51
 10
223.6512
 20
-227.4194
 30
0.0000
 42
1.0000
  0
SEQEND
  8
0
  0
POLYLINE
  8
51
 66
1
 10
0.0000
 20
0.0000
 30
0.0000
 40
0.0000
 41
0.0000
 70
1
  0
VERTEX
  8
51
 10
222.9771
 20
-227.9055
 30
0.0000
  0
VERTEX
  8
51
 10
222.9752
 20
-228.4478
 30
0.0000
 42
1.0000
  0
VERTEX
  8
51
 10
223.1276
 20
-228.4484
 30
0.0000
  0
VERTEX
  8
51
 10
223.1295
 20
-227.9060
 30
0.0000
 42
1.0000
  0
SEQEND
  8
0
  0
POLYLINE
  8
51
 66
1
 10
0.0000
 20
0.0000
 30
0.0000
 40
0.0000
 41
0.0000
 70
1
  0
VERTEX
  8
51
 10
222.9973
 20
-228.5018
 30
0.0000
  0
VERTEX
  8
51
 10
223.2676
 20
-228.7739
 30
0.0000
 42
1.0000
  0
VERTEX
  8
51
 10
223.3757
 20
-228.6665
 30
0.0000
  0
VERTEX
  8
51
 10
223.1055
 20
-228.3944
 30
0.0000
 42
1.0000
  0
SEQEND
  8
0
  0
POLYLINE
  8
51
 66
1
 10
0.0000
 20
0.0000
 30
0.0000
 40
0.0000
 41
0.0000
 70
1
  0
VERTEX
  8
51
 10
223.3214
 20
-228.7964
 30
0.0000
  0
VERTEX
  8
51
 10
223.8637
 20
-228.7983
 30
0.0000
 42
1.0000
  0
VERTEX
  8
51
 10
223.8642
 20
-228.6459
 30
0.0000
  0
VERTEX
  8
51
 10
223.3219
 20
-228.6440
 30
0.0000
 42
1.0000
  0
SEQEND
  8
0
  0
POLYLINE
  8
51
 66
1
 10
0.0000
 20
0.0000
 30
0.0000
 40
0.0000
 41
0.0000
 70
1
  0
VERTEX
  8
51
 10
223.9176
 20
-228.7762
 30
0.0000
  0
VERTEX
  8
51
 10
224.1898
 20
-228.5059
 30
0.0000
 42
1.0000
  0
VERTEX
  8
51
 10
224.0824
 20
-228.3978
 30
0.0000
  0
VERTEX
  8
51
 10
223.8103
 20
-228.6680
 30
0.0000
 42
1.0000
  0
SEQEND
  8
0
  0
POLYLINE
  8
51
 66
1
 10
0.0000
 20
0.0000
 30
0.0000
 40
0.0000
 41
0.0000
 70
1
  0
VERTEX
  8
51
 10
224.2123
 20
-228.4521
 30
0.0000
  0
VERTEX
  8
51
 10
224.2132
 20
-228.1810
 30
0.0000
 42
1.0000
  0
VERTEX
  8
51
 10
224.0608
 20
-228.1804
 30
0.0000
  0
VERTEX
  8
51
 10
224.0599
 20
-228.4516
 30
0.0000
 42
1.0000
  0
SEQEND
  8
0
  0
POLYLINE
  8
51
 66
1
 10
0.0000
 20
0.0000
 30
0.0000
 40
0.0000
 41
0.0000
 70
1
  0
VERTEX
  8
51
 10
224.1911
 20
-228.1270
 30
0.0000
  0
VERTEX
  8
51
 10
223.9209
 20
-227.8549
 30
0.0000
 42
1.0000
  0
VERTEX
  8
51
 10
223.8127
 20
-227.9623
 30
0.0000
  0
VERTEX
  8
51
 10
224.0829
 20
-228.2344
 30
0.0000
 42
1.0000
  0
SEQEND
  8
0
  0
POLYLINE
  8
51
 66
1
 10
0.0000
 20
0.0000
 30
0.0000
 40
0.0000
 41
0.0000
 70
1
  0
VERTEX
  8
51
 10
223.8671
 20
-227.8324
 30
0.0000
  0
VERTEX
  8
51
 10
223.0536
 20
-227.8296
 30
0.0000
 42
1.0000
  0
VERTEX
  8
51
 10
223.0530
 20
-227.9820
 30
0.0000
  0
VERTEX
  8
51
 10
223.8665
 20
-227.9848
 30
0.0000
 42
1.0000
  0
SEQEND
  8
0
  0
POLYLINE
  8
51
 66
1
 10
0.0000
 20
0.0000
 30
0.0000
 40
0.0000
 41
0.0000
 70
1
  0
VERTEX
  8
51
 10
240.1230
 20
-181.6100
 30
0.0000
  0
VERTEX
  8
51
 10
240.1230
 20
-228.1370
 30
0.0000
 42
1.0000
  0
VERTEX
  8
51
 10
240.2530
 20
-228.1370
 30
0.0000
  0
VERTEX
  8
51
 10
240.2530
 20
-181.6100
 30
0.0000
 42
1.0000
  0
SEQEND
  8
0
  0
POLYLINE
  8
51
 66
1
 10
0.0000
 20
0.0000
 30
0.0000
 40
0.0000
 41
0.0000
 70
1
  0
VERTEX
  8
51
 10
202.7230
 20
-181.6100
 30
0.0000
  0
VERTEX
  8
51
 10
202.7230
 20
-228.1370
 30
0.0000
 42
1.0000
  0
VERTEX
  8
51
 10
202.8530
 20
-228.1370
 30
0.0000
  0
VERTEX
  8
51
 10
202.8530
 20
-181.6100
 30
0.0000
 42
1.0000
  0
SEQEND
  8
0
  0
POLYLINE
  8
51
 66
1
 10
0.0000
 20
0.0000
 30
0.0000
 40
0.0000
 41
0.0000
 70
1
  0
VERTEX
  8
51
 10
240.1880
 20
-226.1220
 30
0.0000
  0
VERTEX
  8
51
 10
202.7880
 20
-226.1220
 30
0.0000
 42
1.0000
  0
VERTEX
  8
51
 10
202.7880
 20
-226.2520
 30
0.0000
  0
VERTEX
  8
51
 10
240.1880
 20
-226.2520
 30
0.0000
 42
1.0000
  0
SEQEND
  8
0
  0
POLYLINE
  8
51
 66
1
 10
0.0000
 20
0.0000
 30
0.0000
 40
0.0000
 41
0.0000
 70
1
  0
VERTEX
  8
51
 10
240.1959
 20
-226.1225
 30
0.0000
  0
VERTEX
  8
51
 10
237.5959
 20
-225.8032
 30
0.0000
 42
1.0000
  0
VERTEX
  8
51
 10
237.5801
 20
-225.9323
 30
0.0000
  0
VERTEX
  8
51
 10
240.1801
 20
-226.2515
 30
0.0000
 42
1.0000
  0
SEQEND
  8
0
  0
POLYLINE
  8
51
 66
1
 10
0.0000
 20
0.0000
 30
0.0000
 40
0.0000
 41
0.0000
 70
1
  0
VERTEX
  8
51
 10
237.5230
 20
-225.8678
 30
0.0000
  0
VERTEX
  8
51
 10
237.5230
 20
-226.5062
 30
0.0000
 42
1.0000
  0
VERTEX
  8
51
 10
237.6530
 20
-226.5062
 30
0.0000
  0
VERTEX
  8
51
 10
237.6530
 20
-225.8678
 30
0.0000
 42
1.0000
  0
SEQEND
  8
0
  0
POLYLINE
  8
51
 66
1
 10
0.0000
 20
0.0000
 30
0.0000
 40
0.0000
 41
0.0000
 70
1
  0
VERTEX
  8
51
 10
237.5959
 20
-226.5708
 30
0.0000
  0
VERTEX
  8
51
 10
240.1959
 20
-226.2515
 30
0.0000
 42
1.0000
  0
VERTEX
  8
51
 10
240.1801
 20
-226.1225
 30
0.0000
  0
VERTEX
  8
51
 10
237.5801
 20
-226.4417
 30
0.0000
 42
1.0000
  0
SEQEND
  8
0
  0
POLYLINE
  8
51
 66
1
 10
0.0000
 20
0.0000
 30
0.0000
 40
0.0000
 41
0.0000
 70
1
  0
VERTEX
  8
51
 10
240.1912
 20
-226.1221
 30
0.0000
  0
VERTEX
  8
51
 10
237.5912
 20
-225.9921
 30
0.0000
 42
1.0000
  0
VERTEX
  8
51
 10
237.5848
 20
-226.1219
 30
0.0000
  0
VERTEX
  8
51
 10
240.1848
 20
-226.2519
 30
0.0000
 42
1.0000
  0
SEQEND
  8
0
  0
POLYLINE
  8
51
 66
1
 10
0.0000
 20
0.0000
 30
0.0000
 40
0.0000
 41
0.0000
 70
1
  0
VERTEX
  8
51
 10
237.5912
 20
-226.3819
 30
0.0000
  0
VERTEX
  8
51
 10
240.1912
 20
-226.2519
 30
0.0000
 42
1.0000
  0
VERTEX
  8
51
 10
240.1848
 20
-226.1221
 30
0.0000
  0
VERTEX
  8
51
 10
237.5848
 20
-226.2521
 30
0.0000
 42
1.0000
  0
SEQEND
  8
0
  0
POLYLINE
  8
51
 66
1
 10
0.0000
 20
0.0000
 30
0.0000
 40
0.0000
 41
0.0000
 70
1
  0
VERTEX
  8
51
 10
240.1945
 20
-226.1223
 30
0.0000
  0
VERTEX
  8
51
 10
237.5945
 20
-225.8623
 30
0.0000
 42
1.0000
  0
VERTEX
  8
51
 10
237.5815
 20
-225.9917
 30
0.0000
  0
VERTEX
  8
51
 10
240.1815
 20
-226.2517
 30
0.0000
 42
1.0000
  0
SEQEND
  8
0
  0
POLYLINE
  8
51
 66
1
 10
0.0000
 20
0.0000
 30
0.0000
 40
0.0000
 41
0.0000
 70
1
  0
VERTEX
  8
51
 10
237.5945
 20
-226.5117
 30
0.0000
  0
VERTEX
  8
51
 10
240.1945
 20
-226.2517
 30
0.0000
 42
1.0000
  0
VERTEX
  8
51
 10
240.1815
 20
-226.1223
 30
0.0000
  0
VERTEX
  8
51
 10
237.5815
 20
-226.3823
 30
0.0000
 42
1.0000
  0
SEQEND
  8
0
  0
POLYLINE
  8
51
 66
1
 10
0.0000
 20
0.0000
 30
0.0000
 40
0.0000
 41
0.0000
 70
1
  0
VERTEX
  8
51
 10
202.7959
 20
-226.2515
 30
0.0000
  0
VERTEX
  8
51
 10
205.3959
 20
-225.9323
 30
0.0000
 42
1.0000
  0
VERTEX
  8
51
 10
205.3801
 20
-225.8032
 30
0.0000
  0
VERTEX
  8
51
 10
202.7801
 20
-226.1225
 30
0.0000
 42
1.0000
  0
SEQEND
  8
0
  0
POLYLINE
  8
51
 66
1
 10
0.0000
 20
0.0000
 30
0.0000
 40
0.0000
 41
0.0000
 70
1
  0
VERTEX
  8
51
 10
205.3230
 20
-225.8678
 30
0.0000
  0
VERTEX
  8
51
 10
205.3230
 20
-226.5062
 30
0.0000
 42
1.0000
  0
VERTEX
  8
51
 10
205.4530
 20
-226.5062
 30
0.0000
  0
VERTEX
  8
51
 10
205.4530
 20
-225.8678
 30
0.0000
 42
1.0000
  0
SEQEND
  8
0
  0
POLYLINE
  8
51
 66
1
 10
0.0000
 20
0.0000
 30
0.0000
 40
0.0000
 41
0.0000
 70
1
  0
VERTEX
  8
51
 10
205.3959
 20
-226.4417
 30
0.0000
  0
VERTEX
  8
51
 10
202.7959
 20
-226.1225
 30
0.0000
 42
1.0000
  0
VERTEX
  8
51
 10
202.7801
 20
-226.2515
 30
0.0000
  0
VERTEX
  8
51
 10
205.3801
 20
-226.5708
 30
0.0000
 42
1.0000
  0
SEQEND
  8
0
  0
POLYLINE
  8
51
 66
1
 10
0.0000
 20
0.0000
 30
0.0000
 40
0.0000
 41
0.0000
 70
1
  0
VERTEX
  8
51
 10
202.7912
 20
-226.2519
 30
0.0000
  0
VERTEX
  8
51
 10
205.3912
 20
-226.1219
 30
0.0000
 42
1.0000
  0
VERTEX
  8
51
 10
205.3848
 20
-225.9921
 30
0.0000
  0
VERTEX
  8
51
 10
202.7848
 20
-226.1221
 30
0.0000
 42
1.0000
  0
SEQEND
  8
0
  0
POLYLINE
  8
51
 66
1
 10
0.0000
 20
0.0000
 30
0.0000
 40
0.0000
 41
0.0000
 70
1
  0
VERTEX
  8
51
 10
205.3912
 20
-226.2521
 30
0.0000
  0
VERTEX
  8
51
 10
202.7912
 20
-226.1221
 30
0.0000
 42
1.0000
  0
VERTEX
  8
51
 10
202.7848
 20
-226.2519
 30
0.0000
  0
VERTEX
  8
51
 10
205.3848
 20
-226.3819
 30
0.0000
 42
1.0000
  0
SEQEND
  8
0
  0
POLYLINE
  8
51
 66
1
 10
0.0000
 20
0.0000
 30
0.0000
 40
0.0000
 41
0.0000
 70
1
  0
VERTEX
  8
51
 10
202.7945
 20
-226.2517
 30
0.0000
  0
VERTEX
  8
51
 10
205.3945
 20
-225.9917
 30
0.0000
 42
1.0000
  0
VERTEX
  8
51
 10
205.3815
 20
-225.8623
 30
0.0000
  0
VERTEX
  8
51
 10
202.7815
 20
-226.1223
 30
0.0000
 42
1.0000
  0
SEQEND
  8
0
  0
POLYLINE
  8
51
 66
1
 10
0.0000
 20
0.0000
 30
0.0000
 40
0.0000
 41
0.0000
 70
1
  0
VERTEX
  8
51
 10
205.3945
 20
-226.3823
 30
0.0000
  0
VERTEX
  8
51
 10
202.7945
 20
-226.1223
 30
0.0000
 42
1.0000
  0
VERTEX
  8
51
 10
202.7815
 20
-226.2517
 30
0.0000
  0
VERTEX
  8
51
 10
205.3815
 20
-226.5117
 30
0.0000
 42
1.0000
  0
SEQEND
  8
0
  0
POLYLINE
  8
51
 66
1
 10
0.0000
 20
0.0000
 30
0.0000
 40
0.0000
 41
0.0000
 70
1
  0
VERTEX
  8
51
 10
221.5530
 20
-181.9292
 30
0.0000
  0
VERTEX
  8
51
 10
221.5530
 20
-181.2908
 30
0.0000
 42
1.0000
  0
VERTEX
  8
51
 10
221.4230
 20
-181.2908
 30
0.0000
  0
VERTEX
  8
51
 10
221.4230
 20
-181.9292
 30
0.0000
 42
1.0000
  0
SEQEND
  8
0
  0
POLYLINE
  8
51
 66
1
 10
0.0000
 20
0.0000
 30
0.0000
 40
0.0000
 41
0.0000
 70
1
  0
VERTEX
  8
51
 10
221.1688
 20
-181.6750
 30
0.0000
  0
VERTEX
  8
51
 10
221.8072
 20
-181.6750
 30
0.0000
 42
1.0000
  0
VERTEX
  8
51
 10
221.8072
 20
-181.5450
 30
0.0000
  0
VERTEX
  8
51
 10
221.1688
 20
-181.5450
 30
0.0000
 42
1.0000
  0
SEQEND
  8
0
  0
POLYLINE
  8
51
 66
1
 10
0.0000
 20
0.0000
 30
0.0000
 40
0.0000
 41
0.0000
 70
1
  0
VERTEX
  8
51
 10
219.1367
 20
-224.2344
 30
0.0000
  0
VERTEX
  8
51
 10
219.4079
 20
-223.9632
 30
0.0000
 42
1.0000
  0
VERTEX
  8
51
 10
219.3001
 20
-223.8554
 30
0.0000
  0
VERTEX
  8
51
 10
219.0289
 20
-224.1266
 30
0.0000
 42
1.0000
  0
SEQEND
  8
0
  0
POLYLINE
  8
51
 66
1
 10
0.0000
 20
0.0000
 30
0.0000
 40
0.0000
 41
0.0000
 70
1
  0
VERTEX
  8
51
 10
219.3540
 20
-223.9855
 30
0.0000
  0
VERTEX
  8
51
 10
219.8963
 20
-223.9855
 30
0.0000
 42
1.0000
  0
VERTEX
  8
51
 10
219.8963
 20
-223.8331
 30
0.0000
  0
VERTEX
  8
51
 10
219.3540
 20
-223.8331
 30
0.0000
 42
1.0000
  0
SEQEND
  8
0
  0
POLYLINE
  8
51
 66
1
 10
0.0000
 20
0.0000
 30
0.0000
 40
0.0000
 41
0.0000
 70
1
  0
VERTEX
  8
51
 10
219.8424
 20
-223.9632
 30
0.0000
  0
VERTEX
  8
51
 10
220.1136
 20
-224.2344
 30
0.0000
 42
1.0000
  0
VERTEX
  8
51
 10
220.2213
 20
-224.1266
 30
0.0000
  0
VERTEX
  8
51
 10
219.9502
 20
-223.8554
 30
0.0000
 42
1.0000
  0
SEQEND
  8
0
  0
POLYLINE
  8
51
 66
1
 10
0.0000
 20
0.0000
 30
0.0000
 40
0.0000
 41
0.0000
 70
1
  0
VERTEX
  8
51
 10
220.0913
 20
-224.1805
 30
0.0000
  0
VERTEX
  8
51
 10
220.0913
 20
-224.4516
 30
0.0000
 42
1.0000
  0
VERTEX
  8
51
 10
220.2437
 20
-224.4516
 30
0.0000
  0
VERTEX
  8
51
 10
220.2437
 20
-224.1805
 30
0.0000
 42
1.0000
  0
SEQEND
  8
0
  0
POLYLINE
  8
51
 66
1
 10
0.0000
 20
0.0000
 30
0.0000
 40
0.0000
 41
0.0000
 70
1
  0
VERTEX
  8
51
 10
220.1136
 20
-224.3978
 30
0.0000
  0
VERTEX
  8
51
 10
219.8424
 20
-224.6689
 30
0.0000
 42
1.0000
  0
VERTEX
  8
51
 10
219.9502
 20
-224.7767
 30
0.0000
  0
VERTEX
  8
51
 10
220.2214
 20
-224.5055
 30
0.0000
 42
1.0000
  0
SEQEND
  8
0
  0
POLYLINE
  8
51
 66
1
 10
0.0000
 20
0.0000
 30
0.0000
 40
0.0000
 41
0.0000
 70
1
  0
VERTEX
  8
51
 10
219.8963
 20
-224.6466
 30
0.0000
  0
VERTEX
  8
51
 10
219.6251
 20
-224.6466
 30
0.0000
 42
1.0000
  0
VERTEX
  8
51
 10
219.6251
 20
-224.7990
 30
0.0000
  0
VERTEX
  8
51
 10
219.8963
 20
-224.7990
 30
0.0000
 42
1.0000
  0
SEQEND
  8
0
  0
POLYLINE
  8
51
 66
1
 10
0.0000
 20
0.0000
 30
0.0000
 40
0.0000
 41
0.0000
 70
1
  0
VERTEX
  8
51
 10
219.8424
 20
-224.7767
 30
0.0000
  0
VERTEX
  8
51
 10
220.1136
 20
-225.0479
 30
0.0000
 42
1.0000
  0
VERTEX
  8
51
 10
220.2214
 20
-224.9401
 30
0.0000
  0
VERTEX
  8
51
 10
219.9502
 20
-224.6689
 30
0.0000
 42
1.0000
  0
SEQEND
  8
0
  0
POLYLINE
  8
51
 66
1
 10
0.0000
 20
0.0000
 30
0.0000
 40
0.0000
 41
0.0000
 70
1
  0
VERTEX
  8
51
 10
220.0913
 20
-224.9940
 30
0.0000
  0
VERTEX
  8
51
 10
220.0913
 20
-225.2651
 30
0.0000
 42
1.0000
  0
VERTEX
  8
51
 10
220.2437
 20
-225.2651
 30
0.0000
  0
VERTEX
  8
51
 10
220.2437
 20
-224.9940
 30
0.0000
 42
1.0000
  0
SEQEND
  8
0
  0
POLYLINE
  8
51
 66
1
 10
0.0000
 20
0.0000
 30
0.0000
 40
0.0000
 41
0.0000
 70
1
  0
VERTEX
  8
51
 10
220.1136
 20
-225.2113
 30
0.0000
  0
VERTEX
  8
51
 10
219.8424
 20
-225.4824
 30
0.0000
 42
1.0000
  0
VERTEX
  8
51
 10
219.9502
 20
-225.5902
 30
0.0000
  0
VERTEX
  8
51
 10
220.2213
 20
-225.3190
 30
0.0000
 42
1.0000
  0
SEQEND
  8
0
  0
POLYLINE
  8
51
 66
1
 10
0.0000
 20
0.0000
 30
0.0000
 40
0.0000
 41
0.0000
 70
1
  0
VERTEX
  8
51
 10
219.8963
 20
-225.4601
 30
0.0000
  0
VERTEX
  8
51
 10
219.3540
 20
-225.4601
 30
0.0000
 42
1.0000
  0
VERTEX
  8
51
 10
219.3540
 20
-225.6125
 30
0.0000
  0
VERTEX
  8
51
 10
219.8963
 20
-225.6125
 30
0.0000
 42
1.0000
  0
SEQEND
  8
0
  0
POLYLINE
  8
51
 66
1
 10
0.0000
 20
0.0000
 30
0.0000
 40
0.0000
 41
0.0000
 70
1
  0
VERTEX
  8
51
 10
219.4079
 20
-225.4824
 30
0.0000
  0
VERTEX
  8
51
 10
219.1367
 20
-225.2113
 30
0.0000
 42
1.0000
  0
VERTEX
  8
51
 10
219.0289
 20
-225.3190
 30
0.0000
  0
VERTEX
  8
51
 10
219.3001
 20
-225.5902
 30
0.0000
 42
1.0000
  0
SEQEND
  8
0
  0
POLYLINE
  8
51
 66
1
 10
0.0000
 20
0.0000
 30
0.0000
 40
0.0000
 41
0.0000
 70
1
  0
VERTEX
  8
51
 10
220.7200
 20
-223.9855
 30
0.0000
  0
VERTEX
  8
51
 10
221.8046
 20
-223.9855
 30
0.0000
 42
1.0000
  0
VERTEX
  8
51
 10
221.8046
 20
-223.8331
 30
0.0000
  0
VERTEX
  8
51
 10
220.7200
 20
-223.8331
 30
0.0000
 42
1.0000
  0
SEQEND
  8
0
  0
POLYLINE
  8
51
 66
1
 10
0.0000
 20
0.0000
 30
0.0000
 40
0.0000
 41
0.0000
 70
1
  0
VERTEX
  8
51
 10
221.7284
 20
-223.9093
 30
0.0000
  0
VERTEX
  8
51
 10
221.7284
 20
-224.1805
 30
0.0000
 42
1.0000
  0
VERTEX
  8
51
 10
221.8808
 20
-224.1805
 30
0.0000
  0
VERTEX
  8
51
 10
221.8808
 20
-223.9093
 30
0.0000
 42
1.0000
  0
SEQEND
  8
0
  0
POLYLINE
  8
51
 66
1
 10
0.0000
 20
0.0000
 30
0.0000
 40
0.0000
 41
0.0000
 70
1
  0
VERTEX
  8
51
 10
221.7507
 20
-224.1266
 30
0.0000
  0
VERTEX
  8
51
 10
220.6661
 20
-225.2113
 30
0.0000
 42
1.0000
  0
VERTEX
  8
51
 10
220.7738
 20
-225.3190
 30
0.0000
  0
VERTEX
  8
51
 10
221.8585
 20
-224.2344
 30
0.0000
 42
1.0000
  0
SEQEND
  8
0
  0
POLYLINE
  8
51
 66
1
 10
0.0000
 20
0.0000
 30
0.0000
 40
0.0000
 41
0.0000
 70
1
  0
VERTEX
  8
51
 10
220.6438
 20
-225.2651
 30
0.0000
  0
VERTEX
  8
51
 10
220.6438
 20
-225.5363
 30
0.0000
 42
1.0000
  0
VERTEX
  8
51
 10
220.7962
 20
-225.5363
 30
0.0000
  0
VERTEX
  8
51
 10
220.7962
 20
-225.2651
 30
0.0000
 42
1.0000
  0
SEQEND
  8
0
  0
POLYLINE
  8
51
 66
1
 10
0.0000
 20
0.0000
 30
0.0000
 40
0.0000
 41
0.0000
 70
1
  0
VERTEX
  8
51
 10
222.4333
 20
-225.5363
 30
0.0000
  0
VERTEX
  8
51
 10
222.4333
 20
-225.2651
 30
0.0000
 42
1.0000
  0
VERTEX
  8
51
 10
222.2809
 20
-225.2651
 30
0.0000
  0
VERTEX
  8
51
 10
222.2809
 20
-225.5363
 30
0.0000
 42
1.0000
  0
SEQEND
  8
0
  0
POLYLINE
  8
51
 66
1
 10
0.0000
 20
0.0000
 30
0.0000
 40
0.0000
 41
0.0000
 70
1
  0
VERTEX
  8
51
 10
222.3571
 20
-225.3413
 30
0.0000
  0
VERTEX
  8
51
 10
222.6283
 20
-225.3413
 30
0.0000
 42
1.0000
  0
VERTEX
  8
51
 10
222.6283
 20
-225.1889
 30
0.0000
  0
VERTEX
  8
51
 10
222.3571
 20
-225.1889
 30
0.0000
 42
1.0000
  0
SEQEND
  8
0
  0
POLYLINE
  8
51
 66
1
 10
0.0000
 20
0.0000
 30
0.0000
 40
0.0000
 41
0.0000
 70
1
  0
VERTEX
  8
51
 10
222.5521
 20
-225.2651
 30
0.0000
  0
VERTEX
  8
51
 10
222.5521
 20
-225.5363
 30
0.0000
 42
1.0000
  0
VERTEX
  8
51
 10
222.7045
 20
-225.5363
 30
0.0000
  0
VERTEX
  8
51
 10
222.7045
 20
-225.2651
 30
0.0000
 42
1.0000
  0
SEQEND
  8
0
  0
POLYLINE
  8
51
 66
1
 10
0.0000
 20
0.0000
 30
0.0000
 40
0.0000
 41
0.0000
 70
1
  0
VERTEX
  8
51
 10
222.6283
 20
-225.4601
 30
0.0000
  0
VERTEX
  8
51
 10
222.3571
 20
-225.4601
 30
0.0000
 42
1.0000
  0
VERTEX
  8
51
 10
222.3571
 20
-225.6125
 30
0.0000
  0
VERTEX
  8
51
 10
222.6283
 20
-225.6125
 30
0.0000
 42
1.0000
  0
SEQEND
  8
0
  0
POLYLINE
  8
51
 66
1
 10
0.0000
 20
0.0000
 30
0.0000
 40
0.0000
 41
0.0000
 70
1
  0
VERTEX
  8
51
 10
224.0654
 20
-225.5363
 30
0.0000
  0
VERTEX
  8
51
 10
224.0654
 20
-223.9093
 30
0.0000
 42
1.0000
  0
VERTEX
  8
51
 10
223.9130
 20
-223.9093
 30
0.0000
  0
VERTEX
  8
51
 10
223.9130
 20
-225.5363
 30
0.0000
 42
1.0000
  0
SEQEND
  8
0
  0
POLYLINE
  8
51
 66
1
 10
0.0000
 20
0.0000
 30
0.0000
 40
0.0000
 41
0.0000
 70
1
  0
VERTEX
  8
51
 10
223.9353
 20
-223.8554
 30
0.0000
  0
VERTEX
  8
51
 10
223.1218
 20
-224.6689
 30
0.0000
 42
1.0000
  0
VERTEX
  8
51
 10
223.2296
 20
-224.7767
 30
0.0000
  0
VERTEX
  8
51
 10
224.0431
 20
-223.9632
 30
0.0000
 42
1.0000
  0
SEQEND
  8
0
  0
POLYLINE
  8
51
 66
1
 10
0.0000
 20
0.0000
 30
0.0000
 40
0.0000
 41
0.0000
 70
1
  0
VERTEX
  8
51
 10
223.1757
 20
-224.7990
 30
0.0000
  0
VERTEX
  8
51
 10
224.2604
 20
-224.7990
 30
0.0000
 42
1.0000
  0
VERTEX
  8
51
 10
224.2604
 20
-224.6466
 30
0.0000
  0
VERTEX
  8
51
 10
223.1757
 20
-224.6466
 30
0.0000
 42
1.0000
  0
SEQEND
  8
0
  0
POLYLINE
  8
51
 66
1
 10
0.0000
 20
0.0000
 30
0.0000
 40
0.0000
 41
0.0000
 70
1
  0
VERTEX
  8
51
 10
239.1230
 20
-181.6100
 30
0.0000
  0
VERTEX
  8
51
 10
239.1230
 20
-224.7080
 30
0.0000
 42
1.0000
  0
VERTEX
  8
51
 10
239.2530
 20
-224.7080
 30
0.0000
  0
VERTEX
  8
51
 10
239.2530
 20
-181.6100
 30
0.0000
 42
1.0000
  0
SEQEND
  8
0
  0
POLYLINE
  8
51
 66
1
 10
0.0000
 20
0.0000
 30
0.0000
 40
0.0000
 41
0.0000
 70
1
  0
VERTEX
  8
51
 10
203.7230
 20
-181.6100
 30
0.0000
  0
VERTEX
  8
51
 10
203.7230
 20
-224.7080
 30
0.0000
 42
1.0000
  0
VERTEX
  8
51
 10
203.8530
 20
-224.7080
 30
0.0000
  0
VERTEX
  8
51
 10
203.8530
 20
-181.6100
 30
0.0000
 42
1.0000
  0
SEQEND
  8
0
  0
POLYLINE
  8
51
 66
1
 10
0.0000
 20
0.0000
 30
0.0000
 40
0.0000
 41
0.0000
 70
1
  0
VERTEX
  8
51
 10
239.1880
 20
-222.6930
 30
0.0000
  0
VERTEX
  8
51
 10
203.7880
 20
-222.6930
 30
0.0000
 42
1.0000
  0
VERTEX
  8
51
 10
203.7880
 20
-222.8230
 30
0.0000
  0
VERTEX
  8
51
 10
239.1880
 20
-222.8230
 30
0.0000
 42
1.0000
  0
SEQEND
  8
0
  0
POLYLINE
  8
51
 66
1
 10
0.0000
 20
0.0000
 30
0.0000
 40
0.0000
 41
0.0000
 70
1
  0
VERTEX
  8
51
 10
239.1959
 20
-222.6935
 30
0.0000
  0
VERTEX
  8
51
 10
236.5959
 20
-222.3742
 30
0.0000
 42
1.0000
  0
VERTEX
  8
51
 10
236.5801
 20
-222.5033
 30
0.0000
  0
VERTEX
  8
51
 10
239.1801
 20
-222.8225
 30
0.0000
 42
1.0000
  0
SEQEND
  8
0
  0
POLYLINE
  8
51
 66
1
 10
0.0000
 20
0.0000
 30
0.0000
 40
0.0000
 41
0.0000
 70
1
  0
VERTEX
  8
51
 10
236.5230
 20
-222.4388
 30
0.0000
  0
VERTEX
  8
51
 10
236.5230
 20
-223.0772
 30
0.0000
 42
1.0000
  0
VERTEX
  8
51
 10
236.6530
 20
-223.0772
 30
0.0000
  0
VERTEX
  8
51
 10
236.6530
 20
-222.4388
 30
0.0000
 42
1.0000
  0
SEQEND
  8
0
  0
POLYLINE
  8
51
 66
1
 10
0.0000
 20
0.0000
 30
0.0000
 40
0.0000
 41
0.0000
 70
1
  0
VERTEX
  8
51
 10
236.5959
 20
-223.1418
 30
0.0000
  0
VERTEX
  8
51
 10
239.1959
 20
-222.8225
 30
0.0000
 42
1.0000
  0
VERTEX
  8
51
 10
239.1801
 20
-222.6935
 30
0.0000
  0
VERTEX
  8
51
 10
236.5801
 20
-223.0127
 30
0.0000
 42
1.0000
  0
SEQEND
  8
0
  0
POLYLINE
  8
51
 66
1
 10
0.0000
 20
0.0000
 30
0.0000
 40
0.0000
 41
0.0000
 70
1
  0
VERTEX
  8
51
 10
239.1912
 20
-222.6931
 30
0.0000
  0
VERTEX
  8
51
 10
236.5912
 20
-222.5631
 30
0.0000
 42
1.0000
  0
VERTEX
  8
51
 10
236.5848
 20
-222.6929
 30
0.0000
  0
VERTEX
  8
51
 10
239.1848
 20
-222.8229
 30
0.0000
 42
1.0000
  0
SEQEND
  8
0
  0
POLYLINE
  8
51
 66
1
 10
0.0000
 20
0.0000
 30
0.0000
 40
0.0000
 41
0.0000
 70
1
  0
VERTEX
  8
51
 10
236.5912
 20
-222.9529
 30
0.0000
  0
VERTEX
  8
51
 10
239.1912
 20
-222.8229
 30
0.0000
 42
1.0000
  0
VERTEX
  8
51
 10
239.1848
 20
-222.6931
 30
0.0000
  0
VERTEX
  8
51
 10
236.5848
 20
-222.8231
 30
0.0000
 42
1.0000
  0
SEQEND
  8
0
  0
POLYLINE
  8
51
 66
1
 10
0.0000
 20
0.0000
 30
0.0000
 40
0.0000
 41
0.0000
 70
1
  0
VERTEX
  8
51
 10
239.1945
 20
-222.6933
 30
0.0000
  0
VERTEX
  8
51
 10
236.5945
 20
-222.4333
 30
0.0000
 42
1.0000
  0
VERTEX
  8
51
 10
236.5815
 20
-222.5627
 30
0.0000
  0
VERTEX
  8
51
 10
239.1815
 20
-222.8227
 30
0.0000
 42
1.0000
  0
SEQEND
  8
0
  0
POLYLINE
  8
51
 66
1
 10
0.0000
 20
0.0000
 30
0.0000
 40
0.0000
 41
0.0000
 70
1
  0
VERTEX
  8
51
 10
236.5945
 20
-223.0827
 30
0.0000
  0
VERTEX
  8
51
 10
239.1945
 20
-222.8227
 30
0.0000
 42
1.0000
  0
VERTEX
  8
51
 10
239.1815
 20
-222.6933
 30
0.0000
  0
VERTEX
  8
51
 10
236.5815
 20
-222.9533
 30
0.0000
 42
1.0000
  0
SEQEND
  8
0
  0
POLYLINE
  8
51
 66
1
 10
0.0000
 20
0.0000
 30
0.0000
 40
0.0000
 41
0.0000
 70
1
  0
VERTEX
  8
51
 10
203.7959
 20
-222.8225
 30
0.0000
  0
VERTEX
  8
51
 10
206.3959
 20
-222.5033
 30
0.0000
 42
1.0000
  0
VERTEX
  8
51
 10
206.3801
 20
-222.3742
 30
0.0000
  0
VERTEX
  8
51
 10
203.7801
 20
-222.6935
 30
0.0000
 42
1.0000
  0
SEQEND
  8
0
  0
POLYLINE
  8
51
 66
1
 10
0.0000
 20
0.0000
 30
0.0000
 40
0.0000
 41
0.0000
 70
1
  0
VERTEX
  8
51
 10
206.3230
 20
-222.4388
 30
0.0000
  0
VERTEX
  8
51
 10
206.3230
 20
-223.0772
 30
0.0000
 42
1.0000
  0
VERTEX
  8
51
 10
206.4530
 20
-223.0772
 30
0.0000
  0
VERTEX
  8
51
 10
206.4530
 20
-222.4388
 30
0.0000
 42
1.0000
  0
SEQEND
  8
0
  0
POLYLINE
  8
51
 66
1
 10
0.0000
 20
0.0000
 30
0.0000
 40
0.0000
 41
0.0000
 70
1
  0
VERTEX
  8
51
 10
206.3959
 20
-223.0127
 30
0.0000
  0
VERTEX
  8
51
 10
203.7959
 20
-222.6935
 30
0.0000
 42
1.0000
  0
VERTEX
  8
51
 10
203.7801
 20
-222.8225
 30
0.0000
  0
VERTEX
  8
51
 10
206.3801
 20
-223.1418
 30
0.0000
 42
1.0000
  0
SEQEND
  8
0
  0
POLYLINE
  8
51
 66
1
 10
0.0000
 20
0.0000
 30
0.0000
 40
0.0000
 41
0.0000
 70
1
  0
VERTEX
  8
51
 10
203.7912
 20
-222.8229
 30
0.0000
  0
VERTEX
  8
51
 10
206.3912
 20
-222.6929
 30
0.0000
 42
1.0000
  0
VERTEX
  8
51
 10
206.3848
 20
-222.5631
 30
0.0000
  0
VERTEX
  8
51
 10
203.7848
 20
-222.6931
 30
0.0000
 42
1.0000
  0
SEQEND
  8
0
  0
POLYLINE
  8
51
 66
1
 10
0.0000
 20
0.0000
 30
0.0000
 40
0.0000
 41
0.0000
 70
1
  0
VERTEX
  8
51
 10
206.3912
 20
-222.8231
 30
0.0000
  0
VERTEX
  8
51
 10
203.7912
 20
-222.6931
 30
0.0000
 42
1.0000
  0
VERTEX
  8
51
 10
203.7848
 20
-222.8229
 30
0.0000
  0
VERTEX
  8
51
 10
206.3848
 20
-222.9529
 30
0.0000
 42
1.0000
  0
SEQEND
  8
0
  0
POLYLINE
  8
51
 66
1
 10
0.0000
 20
0.0000
 30
0.0000
 40
0.0000
 41
0.0000
 70
1
  0
VERTEX
  8
51
 10
203.7945
 20
-222.8227
 30
0.0000
  0
VERTEX
  8
51
 10
206.3945
 20
-222.5627
 30
0.0000
 42
1.0000
  0
VERTEX
  8
51
 10
206.3815
 20
-222.4333
 30
0.0000
  0
VERTEX
  8
51
 10
203.7815
 20
-222.6933
 30
0.0000
 42
1.0000
  0
SEQEND
  8
0
  0
POLYLINE
  8
51
 66
1
 10
0.0000
 20
0.0000
 30
0.0000
 40
0.0000
 41
0.0000
 70
1
  0
VERTEX
  8
51
 10
206.3945
 20
-222.9533
 30
0.0000
  0
VERTEX
  8
51
 10
203.7945
 20
-222.6933
 30
0.0000
 42
1.0000
  0
VERTEX
  8
51
 10
203.7815
 20
-222.8227
 30
0.0000
  0
VERTEX
  8
51
 10
206.3815
 20
-223.0827
 30
0.0000
 42
1.0000
  0
SEQEND
  8
0
  0
POLYLINE
  8
51
 66
1
 10
0.0000
 20
0.0000
 30
0.0000
 40
0.0000
 41
0.0000
 70
1
  0
VERTEX
  8
51
 10
221.5530
 20
-181.9292
 30
0.0000
  0
VERTEX
  8
51
 10
221.5530
 20
-181.2908
 30
0.0000
 42
1.0000
  0
VERTEX
  8
51
 10
221.4230
 20
-181.2908
 30
0.0000
  0
VERTEX
  8
51
 10
221.4230
 20
-181.9292
 30
0.0000
 42
1.0000
  0
SEQEND
  8
0
  0
POLYLINE
  8
51
 66
1
 10
0.0000
 20
0.0000
 30
0.0000
 40
0.0000
 41
0.0000
 70
1
  0
VERTEX
  8
51
 10
221.1688
 20
-181.6750
 30
0.0000
  0
VERTEX
  8
51
 10
221.8072
 20
-181.6750
 30
0.0000
 42
1.0000
  0
VERTEX
  8
51
 10
221.8072
 20
-181.5450
 30
0.0000
  0
VERTEX
  8
51
 10
221.1688
 20
-181.5450
 30
0.0000
 42
1.0000
  0
SEQEND
  8
0
  0
POLYLINE
  8
51
 66
1
 10
0.0000
 20
0.0000
 30
0.0000
 40
0.0000
 41
0.0000
 70
1
  0
VERTEX
  8
51
 10
219.1367
 20
-220.8054
 30
0.0000
  0
VERTEX
  8
51
 10
219.4079
 20
-220.5342
 30
0.0000
 42
1.0000
  0
VERTEX
  8
51
 10
219.3001
 20
-220.4264
 30
0.0000
  0
VERTEX
  8
51
 10
219.0289
 20
-220.6976
 30
0.0000
 42
1.0000
  0
SEQEND
  8
0
  0
POLYLINE
  8
51
 66
1
 10
0.0000
 20
0.0000
 30
0.0000
 40
0.0000
 41
0.0000
 70
1
  0
VERTEX
  8
51
 10
219.3540
 20
-220.5565
 30
0.0000
  0
VERTEX
  8
51
 10
219.8963
 20
-220.5565
 30
0.0000
 42
1.0000
  0
VERTEX
  8
51
 10
219.8963
 20
-220.4041
 30
0.0000
  0
VERTEX
  8
51
 10
219.3540
 20
-220.4041
 30
0.0000
 42
1.0000
  0
SEQEND
  8
0
  0
POLYLINE
  8
51
 66
1
 10
0.0000
 20
0.0000
 30
0.0000
 40
0.0000
 41
0.0000
 70
1
  0
VERTEX
  8
51
 10
219.8424
 20
-220.5342
 30
0.0000
  0
VERTEX
  8
51
 10
220.1136
 20
-220.8054
 30
0.0000
 42
1.0000
  0
VERTEX
  8
51
 10
220.2213
 20
-220.6976
 30
0.0000
  0
VERTEX
  8
51
 10
219.9502
 20
-220.4264
 30
0.0000
 42
1.0000
  0
SEQEND
  8
0
  0
POLYLINE
  8
51
 66
1
 10
0.0000
 20
0.0000
 30
0.0000
 40
0.0000
 41
0.0000
 70
1
  0
VERTEX
  8
51
 10
220.0913
 20
-220.7515
 30
0.0000
  0
VERTEX
  8
51
 10
220.0913
 20
-221.0226
 30
0.0000
 42
1.0000
  0
VERTEX
  8
51
 10
220.2437
 20
-221.0226
 30
0.0000
  0
VERTEX
  8
51
 10
220.2437
 20
-220.7515
 30
0.0000
 42
1.0000
  0
SEQEND
  8
0
  0
POLYLINE
  8
51
 66
1
 10
0.0000
 20
0.0000
 30
0.0000
 40
0.0000
 41
0.0000
 70
1
  0
VERTEX
  8
51
 10
220.1136
 20
-220.9688
 30
0.0000
  0
VERTEX
  8
51
 10
219.8424
 20
-221.2399
 30
0.0000
 42
1.0000
  0
VERTEX
  8
51
 10
219.9502
 20
-221.3477
 30
0.0000
  0
VERTEX
  8
51
 10
220.2214
 20
-221.0765
 30
0.0000
 42
1.0000
  0
SEQEND
  8
0
  0
POLYLINE
  8
51
 66
1
 10
0.0000
 20
0.0000
 30
0.0000
 40
0.0000
 41
0.0000
 70
1
  0
VERTEX
  8
51
 10
219.8963
 20
-221.2176
 30
0.0000
  0
VERTEX
  8
51
 10
219.6251
 20
-221.2176
 30
0.0000
 42
1.0000
  0
VERTEX
  8
51
 10
219.6251
 20
-221.3700
 30
0.0000
  0
VERTEX
  8
51
 10
219.8963
 20
-221.3700
 30
0.0000
 42
1.0000
  0
SEQEND
  8
0
  0
POLYLINE
  8
51
 66
1
 10
0.0000
 20
0.0000
 30
0.0000
 40
0.0000
 41
0.0000
 70
1
  0
VERTEX
  8
51
 10
219.8424
 20
-221.3477
 30
0.0000
  0
VERTEX
  8
51
 10
220.1136
 20
-221.6189
 30
0.0000
 42
1.0000
  0
VERTEX
  8
51
 10
220.2214
 20
-221.5111
 30
0.0000
  0
VERTEX
  8
51
 10
219.9502
 20
-221.2399
 30
0.0000
 42
1.0000
  0
SEQEND
  8
0
  0
POLYLINE
  8
51
 66
1
 10
0.0000
 20
0.0000
 30
0.0000
 40
0.0000
 41
0.0000
 70
1
  0
VERTEX
  8
51
 10
220.0913
 20
-221.5650
 30
0.0000
  0
VERTEX
  8
51
 10
220.0913
 20
-221.8361
 30
0.0000
 42
1.0000
  0
VERTEX
  8
51
 10
220.2437
 20
-221.8361
 30
0.0000
  0
VERTEX
  8
51
 10
220.2437
 20
-221.5650
 30
0.0000
 42
1.0000
  0
SEQEND
  8
0
  0
POLYLINE
  8
51
 66
1
 10
0.0000
 20
0.0000
 30
0.0000
 40
0.0000
 41
0.0000
 70
1
  0
VERTEX
  8
51
 10
220.1136
 20
-221.7823
 30
0.0000
  0
VERTEX
  8
51
 10
219.8424
 20
-222.0534
 30
0.0000
 42
1.0000
  0
VERTEX
  8
51
 10
219.9502
 20
-222.1612
 30
0.0000
  0
VERTEX
  8
51
 10
220.2213
 20
-221.8900
 30
0.0000
 42
1.0000
  0
SEQEND
  8
0
  0
POLYLINE
  8
51
 66
1
 10
0.0000
 20
0.0000
 30
0.0000
 40
0.0000
 41
0.0000
 70
1
  0
VERTEX
  8
51
 10
219.8963
 20
-222.0311
 30
0.0000
  0
VERTEX
  8
51
 10
219.3540
 20
-222.0311
 30
0.0000
 42
1.0000
  0
VERTEX
  8
51
 10
219.3540
 20
-222.1835
 30
0.0000
  0
VERTEX
  8
51
 10
219.8963
 20
-222.1835
 30
0.0000
 42
1.0000
  0
SEQEND
  8
0
  0
POLYLINE
  8
51
 66
1
 10
0.0000
 20
0.0000
 30
0.0000
 40
0.0000
 41
0.0000
 70
1
  0
VERTEX
  8
51
 10
219.4079
 20
-222.0534
 30
0.0000
  0
VERTEX
  8
51
 10
219.1367
 20
-221.7823
 30
0.0000
 42
1.0000
  0
VERTEX
  8
51
 10
219.0289
 20
-221.8900
 30
0.0000
  0
VERTEX
  8
51
 10
219.3001
 20
-222.1612
 30
0.0000
 42
1.0000
  0
SEQEND
  8
0
  0
POLYLINE
  8
51
 66
1
 10
0.0000
 20
0.0000
 30
0.0000
 40
0.0000
 41
0.0000
 70
1
  0
VERTEX
  8
51
 10
221.8046
 20
-220.4041
 30
0.0000
  0
VERTEX
  8
51
 10
220.7200
 20
-220.4041
 30
0.0000
 42
1.0000
  0
VERTEX
  8
51
 10
220.7200
 20
-220.5565
 30
0.0000
  0
VERTEX
  8
51
 10
221.8046
 20
-220.5565
 30
0.0000
 42
1.0000
  0
SEQEND
  8
0
  0
POLYLINE
  8
51
 66
1
 10
0.0000
 20
0.0000
 30
0.0000
 40
0.0000
 41
0.0000
 70
1
  0
VERTEX
  8
51
 10
220.6438
 20
-220.4803
 30
0.0000
  0
VERTEX
  8
51
 10
220.6438
 20
-221.2938
 30
0.0000
 42
1.0000
  0
VERTEX
  8
51
 10
220.7962
 20
-221.2938
 30
0.0000
  0
VERTEX
  8
51
 10
220.7962
 20
-220.4803
 30
0.0000
 42
1.0000
  0
SEQEND
  8
0
  0
POLYLINE
  8
51
 66
1
 10
0.0000
 20
0.0000
 30
0.0000
 40
0.0000
 41
0.0000
 70
1
  0
VERTEX
  8
51
 10
220.7540
 20
-221.3620
 30
0.0000
  0
VERTEX
  8
51
 10
221.2964
 20
-221.0908
 30
0.0000
 42
1.0000
  0
VERTEX
  8
51
 10
221.2282
 20
-220.9545
 30
0.0000
  0
VERTEX
  8
51
 10
220.6859
 20
-221.2257
 30
0.0000
 42
1.0000
  0
SEQEND
  8
0
  0
POLYLINE
  8
51
 66
1
 10
0.0000
 20
0.0000
 30
0.0000
 40
0.0000
 41
0.0000
 70
1
  0
VERTEX
  8
51
 10
221.2623
 20
-221.0988
 30
0.0000
  0
VERTEX
  8
51
 10
221.5335
 20
-221.0988
 30
0.0000
 42
1.0000
  0
VERTEX
  8
51
 10
221.5335
 20
-220.9464
 30
0.0000
  0
VERTEX
  8
51
 10
221.2623
 20
-220.9464
 30
0.0000
 42
1.0000
  0
SEQEND
  8
0
  0
POLYLINE
  8
51
 66
1
 10
0.0000
 20
0.0000
 30
0.0000
 40
0.0000
 41
0.0000
 70
1
  0
VERTEX
  8
51
 10
221.4796
 20
-221.0765
 30
0.0000
  0
VERTEX
  8
51
 10
221.7507
 20
-221.3477
 30
0.0000
 42
1.0000
  0
VERTEX
  8
51
 10
221.8585
 20
-221.2399
 30
0.0000
  0
VERTEX
  8
51
 10
221.5873
 20
-220.9688
 30
0.0000
 42
1.0000
  0
SEQEND
  8
0
  0
POLYLINE
  8
51
 66
1
 10
0.0000
 20
0.0000
 30
0.0000
 40
0.0000
 41
0.0000
 70
1
  0
VERTEX
  8
51
 10
221.7284
 20
-221.2938
 30
0.0000
  0
VERTEX
  8
51
 10
221.7284
 20
-221.8361
 30
0.0000
 42
1.0000
  0
VERTEX
  8
51
 10
221.8808
 20
-221.8361
 30
0.0000
  0
VERTEX
  8
51
 10
221.8808
 20
-221.2938
 30
0.0000
 42
1.0000
  0
SEQEND
  8
0
  0
POLYLINE
  8
51
 66
1
 10
0.0000
 20
0.0000
 30
0.0000
 40
0.0000
 41
0.0000
 70
1
  0
VERTEX
  8
51
 10
221.7507
 20
-221.7823
 30
0.0000
  0
VERTEX
  8
51
 10
221.4796
 20
-222.0534
 30
0.0000
 42
1.0000
  0
VERTEX
  8
51
 10
221.5873
 20
-222.1612
 30
0.0000
  0
VERTEX
  8
51
 10
221.8585
 20
-221.8900
 30
0.0000
 42
1.0000
  0
SEQEND
  8
0
  0
POLYLINE
  8
51
 66
1
 10
0.0000
 20
0.0000
 30
0.0000
 40
0.0000
 41
0.0000
 70
1
  0
VERTEX
  8
51
 10
221.5335
 20
-222.0311
 30
0.0000
  0
VERTEX
  8
51
 10
220.9911
 20
-222.0311
 30
0.0000
 42
1.0000
  0
VERTEX
  8
51
 10
220.9911
 20
-222.1835
 30
0.0000
  0
VERTEX
  8
51
 10
221.5335
 20
-222.1835
 30
0.0000
 42
1.0000
  0
SEQEND
  8
0
  0
POLYLINE
  8
51
 66
1
 10
0.0000
 20
0.0000
 30
0.0000
 40
0.0000
 41
0.0000
 70
1
  0
VERTEX
  8
51
 10
221.0450
 20
-222.0534
 30
0.0000
  0
VERTEX
  8
51
 10
220.7738
 20
-221.7823
 30
0.0000
 42
1.0000
  0
VERTEX
  8
51
 10
220.6661
 20
-221.8900
 30
0.0000
  0
VERTEX
  8
51
 10
220.9372
 20
-222.1612
 30
0.0000
 42
1.0000
  0
SEQEND
  8
0
  0
POLYLINE
  8
51
 66
1
 10
0.0000
 20
0.0000
 30
0.0000
 40
0.0000
 41
0.0000
 70
1
  0
VERTEX
  8
51
 10
222.4333
 20
-222.1073
 30
0.0000
  0
VERTEX
  8
51
 10
222.4333
 20
-221.8361
 30
0.0000
 42
1.0000
  0
VERTEX
  8
51
 10
222.2809
 20
-221.8361
 30
0.0000
  0
VERTEX
  8
51
 10
222.2809
 20
-222.1073
 30
0.0000
 42
1.0000
  0
SEQEND
  8
0
  0
POLYLINE
  8
51
 66
1
 10
0.0000
 20
0.0000
 30
0.0000
 40
0.0000
 41
0.0000
 70
1
  0
VERTEX
  8
51
 10
222.3571
 20
-221.9123
 30
0.0000
  0
VERTEX
  8
51
 10
222.6283
 20
-221.9123
 30
0.0000
 42
1.0000
  0
VERTEX
  8
51
 10
222.6283
 20
-221.7599
 30
0.0000
  0
VERTEX
  8
51
 10
222.3571
 20
-221.7599
 30
0.0000
 42
1.0000
  0
SEQEND
  8
0
  0
POLYLINE
  8
51
 66
1
 10
0.0000
 20
0.0000
 30
0.0000
 40
0.0000
 41
0.0000
 70
1
  0
VERTEX
  8
51
 10
222.5521
 20
-221.8361
 30
0.0000
  0
VERTEX
  8
51
 10
222.5521
 20
-222.1073
 30
0.0000
 42
1.0000
  0
VERTEX
  8
51
 10
222.7045
 20
-222.1073
 30
0.0000
  0
VERTEX
  8
51
 10
222.7045
 20
-221.8361
 30
0.0000
 42
1.0000
  0
SEQEND
  8
0
  0
POLYLINE
  8
51
 66
1
 10
0.0000
 20
0.0000
 30
0.0000
 40
0.0000
 41
0.0000
 70
1
  0
VERTEX
  8
51
 10
222.6283
 20
-222.0311
 30
0.0000
  0
VERTEX
  8
51
 10
222.3571
 20
-222.0311
 30
0.0000
 42
1.0000
  0
VERTEX
  8
51
 10
222.3571
 20
-222.1835
 30
0.0000
  0
VERTEX
  8
51
 10
222.6283
 20
-222.1835
 30
0.0000
 42
1.0000
  0
SEQEND
  8
0
  0
POLYLINE
  8
51
 66
1
 10
0.0000
 20
0.0000
 30
0.0000
 40
0.0000
 41
0.0000
 70
1
  0
VERTEX
  8
51
 10
224.0654
 20
-222.1073
 30
0.0000
  0
VERTEX
  8
51
 10
224.0654
 20
-220.4803
 30
0.0000
 42
1.0000
  0
VERTEX
  8
51
 10
223.9130
 20
-220.4803
 30
0.0000
  0
VERTEX
  8
51
 10
223.9130
 20
-222.1073
 30
0.0000
 42
1.0000
  0
SEQEND
  8
0
  0
POLYLINE
  8
51
 66
1
 10
0.0000
 20
0.0000
 30
0.0000
 40
0.0000
 41
0.0000
 70
1
  0
VERTEX
  8
51
 10
223.9353
 20
-220.4264
 30
0.0000
  0
VERTEX
  8
51
 10
223.1218
 20
-221.2399
 30
0.0000
 42
1.0000
  0
VERTEX
  8
51
 10
223.2296
 20
-221.3477
 30
0.0000
  0
VERTEX
  8
51
 10
224.0431
 20
-220.5342
 30
0.0000
 42
1.0000
  0
SEQEND
  8
0
  0
POLYLINE
  8
51
 66
1
 10
0.0000
 20
0.0000
 30
0.0000
 40
0.0000
 41
0.0000
 70
1
  0
VERTEX
  8
51
 10
223.1757
 20
-221.3700
 30
0.0000
  0
VERTEX
  8
51
 10
224.2604
 20
-221.3700
 30
0.0000
 42
1.0000
  0
VERTEX
  8
51
 10
224.2604
 20
-221.2176
 30
0.0000
  0
VERTEX
  8
51
 10
223.1757
 20
-221.2176
 30
0.0000
 42
1.0000
  0
SEQEND
  8
0
  0
POLYLINE
  8
51
 66
1
 10
0.0000
 20
0.0000
 30
0.0000
 40
0.0000
 41
0.0000
 70
1
  0
VERTEX
  8
51
 10
235.1230
 20
-181.6100
 30
0.0000
  0
VERTEX
  8
51
 10
235.1230
 20
-221.5330
 30
0.0000
 42
1.0000
  0
VERTEX
  8
51
 10
235.2530
 20
-221.5330
 30
0.0000
  0
VERTEX
  8
51
 10
235.2530
 20
-181.6100
 30
0.0000
 42
1.0000
  0
SEQEND
  8
0
  0
POLYLINE
  8
51
 66
1
 10
0.0000
 20
0.0000
 30
0.0000
 40
0.0000
 41
0.0000
 70
1
  0
VERTEX
  8
51
 10
207.7230
 20
-181.6100
 30
0.0000
  0
VERTEX
  8
51
 10
207.7230
 20
-221.5330
 30
0.0000
 42
1.0000
  0
VERTEX
  8
51
 10
207.8530
 20
-221.5330
 30
0.0000
  0
VERTEX
  8
51
 10
207.8530
 20
-181.6100
 30
0.0000
 42
1.0000
  0
SEQEND
  8
0
  0
POLYLINE
  8
51
 66
1
 10
0.0000
 20
0.0000
 30
0.0000
 40
0.0000
 41
0.0000
 70
1
  0
VERTEX
  8
51
 10
235.1880
 20
-219.5180
 30
0.0000
  0
VERTEX
  8
51
 10
207.7880
 20
-219.5180
 30
0.0000
 42
1.0000
  0
VERTEX
  8
51
 10
207.7880
 20
-219.6480
 30
0.0000
  0
VERTEX
  8
51
 10
235.1880
 20
-219.6480
 30
0.0000
 42
1.0000
  0
SEQEND
  8
0
  0
POLYLINE
  8
51
 66
1
 10
0.0000
 20
0.0000
 30
0.0000
 40
0.0000
 41
0.0000
 70
1
  0
VERTEX
  8
51
 10
235.1959
 20
-219.5185
 30
0.0000
  0
VERTEX
  8
51
 10
232.5959
 20
-219.1992
 30
0.0000
 42
1.0000
  0
VERTEX
  8
51
 10
232.5801
 20
-219.3283
 30
0.0000
  0
VERTEX
  8
51
 10
235.1801
 20
-219.6475
 30
0.0000
 42
1.0000
  0
SEQEND
  8
0
  0
POLYLINE
  8
51
 66
1
 10
0.0000
 20
0.0000
 30
0.0000
 40
0.0000
 41
0.0000
 70
1
  0
VERTEX
  8
51
 10
232.5230
 20
-219.2638
 30
0.0000
  0
VERTEX
  8
51
 10
232.5230
 20
-219.9022
 30
0.0000
 42
1.0000
  0
VERTEX
  8
51
 10
232.6530
 20
-219.9022
 30
0.0000
  0
VERTEX
  8
51
 10
232.6530
 20
-219.2638
 30
0.0000
 42
1.0000
  0
SEQEND
  8
0
  0
POLYLINE
  8
51
 66
1
 10
0.0000
 20
0.0000
 30
0.0000
 40
0.0000
 41
0.0000
 70
1
  0
VERTEX
  8
51
 10
232.5959
 20
-219.9668
 30
0.0000
  0
VERTEX
  8
51
 10
235.1959
 20
-219.6475
 30
0.0000
 42
1.0000
  0
VERTEX
  8
51
 10
235.1801
 20
-219.5185
 30
0.0000
  0
VERTEX
  8
51
 10
232.5801
 20
-219.8377
 30
0.0000
 42
1.0000
  0
SEQEND
  8
0
  0
POLYLINE
  8
51
 66
1
 10
0.0000
 20
0.0000
 30
0.0000
 40
0.0000
 41
0.0000
 70
1
  0
VERTEX
  8
51
 10
235.1912
 20
-219.5181
 30
0.0000
  0
VERTEX
  8
51
 10
232.5912
 20
-219.3881
 30
0.0000
 42
1.0000
  0
VERTEX
  8
51
 10
232.5848
 20
-219.5179
 30
0.0000
  0
VERTEX
  8
51
 10
235.1848
 20
-219.6479
 30
0.0000
 42
1.0000
  0
SEQEND
  8
0
  0
POLYLINE
  8
51
 66
1
 10
0.0000
 20
0.0000
 30
0.0000
 40
0.0000
 41
0.0000
 70
1
  0
VERTEX
  8
51
 10
232.5912
 20
-219.7779
 30
0.0000
  0
VERTEX
  8
51
 10
235.1912
 20
-219.6479
 30
0.0000
 42
1.0000
  0
VERTEX
  8
51
 10
235.1848
 20
-219.5181
 30
0.0000
  0
VERTEX
  8
51
 10
232.5848
 20
-219.6481
 30
0.0000
 42
1.0000
  0
SEQEND
  8
0
  0
POLYLINE
  8
51
 66
1
 10
0.0000
 20
0.0000
 30
0.0000
 40
0.0000
 41
0.0000
 70
1
  0
VERTEX
  8
51
 10
235.1945
 20
-219.5183
 30
0.0000
  0
VERTEX
  8
51
 10
232.5945
 20
-219.2583
 30
0.0000
 42
1.0000
  0
VERTEX
  8
51
 10
232.5815
 20
-219.3877
 30
0.0000
  0
VERTEX
  8
51
 10
235.1815
 20
-219.6477
 30
0.0000
 42
1.0000
  0
SEQEND
  8
0
  0
POLYLINE
  8
51
 66
1
 10
0.0000
 20
0.0000
 30
0.0000
 40
0.0000
 41
0.0000
 70
1
  0
VERTEX
  8
51
 10
232.5945
 20
-219.9077
 30
0.0000
  0
VERTEX
  8
51
 10
235.1945
 20
-219.6477
 30
0.0000
 42
1.0000
  0
VERTEX
  8
51
 10
235.1815
 20
-219.5183
 30
0.0000
  0
VERTEX
  8
51
 10
232.5815
 20
-219.7783
 30
0.0000
 42
1.0000
  0
SEQEND
  8
0
  0
POLYLINE
  8
51
 66
1
 10
0.0000
 20
0.0000
 30
0.0000
 40
0.0000
 41
0.0000
 70
1
  0
VERTEX
  8
51
 10
207.7959
 20
-219.6475
 30
0.0000
  0
VERTEX
  8
51
 10
210.3959
 20
-219.3283
 30
0.0000
 42
1.0000
  0
VERTEX
  8
51
 10
210.3801
 20
-219.1992
 30
0.0000
  0
VERTEX
  8
51
 10
207.7801
 20
-219.5185
 30
0.0000
 42
1.0000
  0
SEQEND
  8
0
  0
POLYLINE
  8
51
 66
1
 10
0.0000
 20
0.0000
 30
0.0000
 40
0.0000
 41
0.0000
 70
1
  0
VERTEX
  8
51
 10
210.3230
 20
-219.2638
 30
0.0000
  0
VERTEX
  8
51
 10
210.3230
 20
-219.9022
 30
0.0000
 42
1.0000
  0
VERTEX
  8
51
 10
210.4530
 20
-219.9022
 30
0.0000
  0
VERTEX
  8
51
 10
210.4530
 20
-219.2638
 30
0.0000
 42
1.0000
  0
SEQEND
  8
0
  0
POLYLINE
  8
51
 66
1
 10
0.0000
 20
0.0000
 30
0.0000
 40
0.0000
 41
0.0000
 70
1
  0
VERTEX
  8
51
 10
210.3959
 20
-219.8377
 30
0.0000
  0
VERTEX
  8
51
 10
207.7959
 20
-219.5185
 30
0.0000
 42
1.0000
  0
VERTEX
  8
51
 10
207.7801
 20
-219.6475
 30
0.0000
  0
VERTEX
  8
51
 10
210.3801
 20
-219.9668
 30
0.0000
 42
1.0000
  0
SEQEND
  8
0
  0
POLYLINE
  8
51
 66
1
 10
0.0000
 20
0.0000
 30
0.0000
 40
0.0000
 41
0.0000
 70
1
  0
VERTEX
  8
51
 10
207.7912
 20
-219.6479
 30
0.0000
  0
VERTEX
  8
51
 10
210.3912
 20
-219.5179
 30
0.0000
 42
1.0000
  0
VERTEX
  8
51
 10
210.3848
 20
-219.3881
 30
0.0000
  0
VERTEX
  8
51
 10
207.7848
 20
-219.5181
 30
0.0000
 42
1.0000
  0
SEQEND
  8
0
  0
POLYLINE
  8
51
 66
1
 10
0.0000
 20
0.0000
 30
0.0000
 40
0.0000
 41
0.0000
 70
1
  0
VERTEX
  8
51
 10
210.3912
 20
-219.6481
 30
0.0000
  0
VERTEX
  8
51
 10
207.7912
 20
-219.5181
 30
0.0000
 42
1.0000
  0
VERTEX
  8
51
 10
207.7848
 20
-219.6479
 30
0.0000
  0
VERTEX
  8
51
 10
210.3848
 20
-219.7779
 30
0.0000
 42
1.0000
  0
SEQEND
  8
0
  0
POLYLINE
  8
51
 66
1
 10
0.0000
 20
0.0000
 30
0.0000
 40
0.0000
 41
0.0000
 70
1
  0
VERTEX
  8
51
 10
207.7945
 20
-219.6477
 30
0.0000
  0
VERTEX
  8
51
 10
210.3945
 20
-219.3877
 30
0.0000
 42
1.0000
  0
VERTEX
  8
51
 10
210.3815
 20
-219.2583
 30
0.0000
  0
VERTEX
  8
51
 10
207.7815
 20
-219.5183
 30
0.0000
 42
1.0000
  0
SEQEND
  8
0
  0
POLYLINE
  8
51
 66
1
 10
0.0000
 20
0.0000
 30
0.0000
 40
0.0000
 41
0.0000
 70
1
  0
VERTEX
  8
51
 10
210.3945
 20
-219.7783
 30
0.0000
  0
VERTEX
  8
51
 10
207.7945
 20
-219.5183
 30
0.0000
 42
1.0000
  0
VERTEX
  8
51
 10
207.7815
 20
-219.6477
 30
0.0000
  0
VERTEX
  8
51
 10
210.3815
 20
-219.9077
 30
0.0000
 42
1.0000
  0
SEQEND
  8
0
  0
POLYLINE
  8
51
 66
1
 10
0.0000
 20
0.0000
 30
0.0000
 40
0.0000
 41
0.0000
 70
1
  0
VERTEX
  8
51
 10
221.5530
 20
-181.9292
 30
0.0000
  0
VERTEX
  8
51
 10
221.5530
 20
-181.2908
 30
0.0000
 42
1.0000
  0
VERTEX
  8
51
 10
221.4230
 20
-181.2908
 30
0.0000
  0
VERTEX
  8
51
 10
221.4230
 20
-181.9292
 30
0.0000
 42
1.0000
  0
SEQEND
  8
0
  0
POLYLINE
  8
51
 66
1
 10
0.0000
 20
0.0000
 30
0.0000
 40
0.0000
 41
0.0000
 70
1
  0
VERTEX
  8
51
 10
221.1688
 20
-181.6750
 30
0.0000
  0
VERTEX
  8
51
 10
221.8072
 20
-181.6750
 30
0.0000
 42
1.0000
  0
VERTEX
  8
51
 10
221.8072
 20
-181.5450
 30
0.0000
  0
VERTEX
  8
51
 10
221.1688
 20
-181.5450
 30
0.0000
 42
1.0000
  0
SEQEND
  8
0
  0
POLYLINE
  8
51
 66
1
 10
0.0000
 20
0.0000
 30
0.0000
 40
0.0000
 41
0.0000
 70
1
  0
VERTEX
  8
51
 10
220.1675
 20
-218.8561
 30
0.0000
  0
VERTEX
  8
51
 10
219.0828
 20
-218.8561
 30
0.0000
 42
1.0000
  0
VERTEX
  8
51
 10
219.0828
 20
-219.0085
 30
0.0000
  0
VERTEX
  8
51
 10
220.1675
 20
-219.0085
 30
0.0000
 42
1.0000
  0
SEQEND
  8
0
  0
POLYLINE
  8
51
 66
1
 10
0.0000
 20
0.0000
 30
0.0000
 40
0.0000
 41
0.0000
 70
1
  0
VERTEX
  8
51
 10
219.1367
 20
-218.9862
 30
0.0000
  0
VERTEX
  8
51
 10
220.2214
 20
-217.9015
 30
0.0000
 42
1.0000
  0
VERTEX
  8
51
 10
220.1136
 20
-217.7938
 30
0.0000
  0
VERTEX
  8
51
 10
219.0289
 20
-218.8784
 30
0.0000
 42
1.0000
  0
SEQEND
  8
0
  0
POLYLINE
  8
51
 66
1
 10
0.0000
 20
0.0000
 30
0.0000
 40
0.0000
 41
0.0000
 70
1
  0
VERTEX
  8
51
 10
220.2437
 20
-217.8476
 30
0.0000
  0
VERTEX
  8
51
 10
220.2437
 20
-217.5765
 30
0.0000
 42
1.0000
  0
VERTEX
  8
51
 10
220.0913
 20
-217.5765
 30
0.0000
  0
VERTEX
  8
51
 10
220.0913
 20
-217.8476
 30
0.0000
 42
1.0000
  0
SEQEND
  8
0
  0
POLYLINE
  8
51
 66
1
 10
0.0000
 20
0.0000
 30
0.0000
 40
0.0000
 41
0.0000
 70
1
  0
VERTEX
  8
51
 10
220.2213
 20
-217.5226
 30
0.0000
  0
VERTEX
  8
51
 10
219.9502
 20
-217.2514
 30
0.0000
 42
1.0000
  0
VERTEX
  8
51
 10
219.8424
 20
-217.3592
 30
0.0000
  0
VERTEX
  8
51
 10
220.1136
 20
-217.6304
 30
0.0000
 42
1.0000
  0
SEQEND
  8
0
  0
POLYLINE
  8
51
 66
1
 10
0.0000
 20
0.0000
 30
0.0000
 40
0.0000
 41
0.0000
 70
1
  0
VERTEX
  8
51
 10
219.8963
 20
-217.2291
 30
0.0000
  0
VERTEX
  8
51
 10
219.3540
 20
-217.2291
 30
0.0000
 42
1.0000
  0
VERTEX
  8
51
 10
219.3540
 20
-217.3815
 30
0.0000
  0
VERTEX
  8
51
 10
219.8963
 20
-217.3815
 30
0.0000
 42
1.0000
  0
SEQEND
  8
0
  0
POLYLINE
  8
51
 66
1
 10
0.0000
 20
0.0000
 30
0.0000
 40
0.0000
 41
0.0000
 70
1
  0
VERTEX
  8
51
 10
219.3001
 20
-217.2514
 30
0.0000
  0
VERTEX
  8
51
 10
219.0289
 20
-217.5226
 30
0.0000
 42
1.0000
  0
VERTEX
  8
51
 10
219.1367
 20
-217.6304
 30
0.0000
  0
VERTEX
  8
51
 10
219.4079
 20
-217.3592
 30
0.0000
 42
1.0000
  0
SEQEND
  8
0
  0
POLYLINE
  8
51
 66
1
 10
0.0000
 20
0.0000
 30
0.0000
 40
0.0000
 41
0.0000
 70
1
  0
VERTEX
  8
51
 10
220.7200
 20
-217.3815
 30
0.0000
  0
VERTEX
  8
51
 10
221.8046
 20
-217.3815
 30
0.0000
 42
1.0000
  0
VERTEX
  8
51
 10
221.8046
 20
-217.2291
 30
0.0000
  0
VERTEX
  8
51
 10
220.7200
 20
-217.2291
 30
0.0000
 42
1.0000
  0
SEQEND
  8
0
  0
POLYLINE
  8
51
 66
1
 10
0.0000
 20
0.0000
 30
0.0000
 40
0.0000
 41
0.0000
 70
1
  0
VERTEX
  8
51
 10
221.7284
 20
-217.3053
 30
0.0000
  0
VERTEX
  8
51
 10
221.7284
 20
-217.5765
 30
0.0000
 42
1.0000
  0
VERTEX
  8
51
 10
221.8808
 20
-217.5765
 30
0.0000
  0
VERTEX
  8
51
 10
221.8808
 20
-217.3053
 30
0.0000
 42
1.0000
  0
SEQEND
  8
0
  0
POLYLINE
  8
51
 66
1
 10
0.0000
 20
0.0000
 30
0.0000
 40
0.0000
 41
0.0000
 70
1
  0
VERTEX
  8
51
 10
221.7507
 20
-217.5226
 30
0.0000
  0
VERTEX
  8
51
 10
220.6661
 20
-218.6073
 30
0.0000
 42
1.0000
  0
VERTEX
  8
51
 10
220.7738
 20
-218.7150
 30
0.0000
  0
VERTEX
  8
51
 10
221.8585
 20
-217.6304
 30
0.0000
 42
1.0000
  0
SEQEND
  8
0
  0
POLYLINE
  8
51
 66
1
 10
0.0000
 20
0.0000
 30
0.0000
 40
0.0000
 41
0.0000
 70
1
  0
VERTEX
  8
51
 10
220.6438
 20
-218.6611
 30
0.0000
  0
VERTEX
  8
51
 10
220.6438
 20
-218.9323
 30
0.0000
 42
1.0000
  0
VERTEX
  8
51
 10
220.7962
 20
-218.9323
 30
0.0000
  0
VERTEX
  8
51
 10
220.7962
 20
-218.6611
 30
0.0000
 42
1.0000
  0
SEQEND
  8
0
  0
POLYLINE
  8
51
 66
1
 10
0.0000
 20
0.0000
 30
0.0000
 40
0.0000
 41
0.0000
 70
1
  0
VERTEX
  8
51
 10
222.4333
 20
-218.9323
 30
0.0000
  0
VERTEX
  8
51
 10
222.4333
 20
-218.6611
 30
0.0000
 42
1.0000
  0
VERTEX
  8
51
 10
222.2809
 20
-218.6611
 30
0.0000
  0
VERTEX
  8
51
 10
222.2809
 20
-218.9323
 30
0.0000
 42
1.0000
  0
SEQEND
  8
0
  0
POLYLINE
  8
51
 66
1
 10
0.0000
 20
0.0000
 30
0.0000
 40
0.0000
 41
0.0000
 70
1
  0
VERTEX
  8
51
 10
222.3571
 20
-218.7373
 30
0.0000
  0
VERTEX
  8
51
 10
222.6283
 20
-218.7373
 30
0.0000
 42
1.0000
  0
VERTEX
  8
51
 10
222.6283
 20
-218.5849
 30
0.0000
  0
VERTEX
  8
51
 10
222.3571
 20
-218.5849
 30
0.0000
 42
1.0000
  0
SEQEND
  8
0
  0
POLYLINE
  8
51
 66
1
 10
0.0000
 20
0.0000
 30
0.0000
 40
0.0000
 41
0.0000
 70
1
  0
VERTEX
  8
51
 10
222.5521
 20
-218.6611
 30
0.0000
  0
VERTEX
  8
51
 10
222.5521
 20
-218.9323
 30
0.0000
 42
1.0000
  0
VERTEX
  8
51
 10
222.7045
 20
-218.9323
 30
0.0000
  0
VERTEX
  8
51
 10
222.7045
 20
-218.6611
 30
0.0000
 42
1.0000
  0
SEQEND
  8
0
  0
POLYLINE
  8
51
 66
1
 10
0.0000
 20
0.0000
 30
0.0000
 40
0.0000
 41
0.0000
 70
1
  0
VERTEX
  8
51
 10
222.6283
 20
-218.8561
 30
0.0000
  0
VERTEX
  8
51
 10
222.3571
 20
-218.8561
 30
0.0000
 42
1.0000
  0
VERTEX
  8
51
 10
222.3571
 20
-219.0085
 30
0.0000
  0
VERTEX
  8
51
 10
222.6283
 20
-219.0085
 30
0.0000
 42
1.0000
  0
SEQEND
  8
0
  0
POLYLINE
  8
51
 66
1
 10
0.0000
 20
0.0000
 30
0.0000
 40
0.0000
 41
0.0000
 70
1
  0
VERTEX
  8
51
 10
224.0654
 20
-218.9323
 30
0.0000
  0
VERTEX
  8
51
 10
224.0654
 20
-217.3053
 30
0.0000
 42
1.0000
  0
VERTEX
  8
51
 10
223.9130
 20
-217.3053
 30
0.0000
  0
VERTEX
  8
51
 10
223.9130
 20
-218.9323
 30
0.0000
 42
1.0000
  0
SEQEND
  8
0
  0
POLYLINE
  8
51
 66
1
 10
0.0000
 20
0.0000
 30
0.0000
 40
0.0000
 41
0.0000
 70
1
  0
VERTEX
  8
51
 10
223.9353
 20
-217.2514
 30
0.0000
  0
VERTEX
  8
51
 10
223.1218
 20
-218.0649
 30
0.0000
 42
1.0000
  0
VERTEX
  8
51
 10
223.2296
 20
-218.1727
 30
0.0000
  0
VERTEX
  8
51
 10
224.0431
 20
-217.3592
 30
0.0000
 42
1.0000
  0
SEQEND
  8
0
  0
POLYLINE
  8
51
 66
1
 10
0.0000
 20
0.0000
 30
0.0000
 40
0.0000
 41
0.0000
 70
1
  0
VERTEX
  8
51
 10
223.1757
 20
-218.1950
 30
0.0000
  0
VERTEX
  8
51
 10
224.2604
 20
-218.1950
 30
0.0000
 42
1.0000
  0
VERTEX
  8
51
 10
224.2604
 20
-218.0426
 30
0.0000
  0
VERTEX
  8
51
 10
223.1757
 20
-218.0426
 30
0.0000
 42
1.0000
  0
SEQEND
  8
0
  0
POLYLINE
  8
51
 66
1
 10
0.0000
 20
0.0000
 30
0.0000
 40
0.0000
 41
0.0000
 70
1
  0
VERTEX
  8
51
 10
234.1230
 20
-181.6100
 30
0.0000
  0
VERTEX
  8
51
 10
234.1230
 20
-218.3580
 30
0.0000
 42
1.0000
  0
VERTEX
  8
51
 10
234.2530
 20
-218.3580
 30
0.0000
  0
VERTEX
  8
51
 10
234.2530
 20
-181.6100
 30
0.0000
 42
1.0000
  0
SEQEND
  8
0
  0
POLYLINE
  8
51
 66
1
 10
0.0000
 20
0.0000
 30
0.0000
 40
0.0000
 41
0.0000
 70
1
  0
VERTEX
  8
51
 10
208.7230
 20
-181.6100
 30
0.0000
  0
VERTEX
  8
51
 10
208.7230
 20
-218.3580
 30
0.0000
 42
1.0000
  0
VERTEX
  8
51
 10
208.8530
 20
-218.3580
 30
0.0000
  0
VERTEX
  8
51
 10
208.8530
 20
-181.6100
 30
0.0000
 42
1.0000
  0
SEQEND
  8
0
  0
POLYLINE
  8
51
 66
1
 10
0.0000
 20
0.0000
 30
0.0000
 40
0.0000
 41
0.0000
 70
1
  0
VERTEX
  8
51
 10
234.1880
 20
-216.3430
 30
0.0000
  0
VERTEX
  8
51
 10
208.7880
 20
-216.3430
 30
0.0000
 42
1.0000
  0
VERTEX
  8
51
 10
208.7880
 20
-216.4730
 30
0.0000
  0
VERTEX
  8
51
 10
234.1880
 20
-216.4730
 30
0.0000
 42
1.0000
  0
SEQEND
  8
0
  0
POLYLINE
  8
51
 66
1
 10
0.0000
 20
0.0000
 30
0.0000
 40
0.0000
 41
0.0000
 70
1
  0
VERTEX
  8
51
 10
234.1959
 20
-216.3435
 30
0.0000
  0
VERTEX
  8
51
 10
231.5959
 20
-216.0242
 30
0.0000
 42
1.0000
  0
VERTEX
  8
51
 10
231.5801
 20
-216.1533
 30
0.0000
  0
VERTEX
  8
51
 10
234.1801
 20
-216.4725
 30
0.0000
 42
1.0000
  0
SEQEND
  8
0
  0
POLYLINE
  8
51
 66
1
 10
0.0000
 20
0.0000
 30
0.0000
 40
0.0000
 41
0.0000
 70
1
  0
VERTEX
  8
51
 10
231.5230
 20
-216.0888
 30
0.0000
  0
VERTEX
  8
51
 10
231.5230
 20
-216.7272
 30
0.0000
 42
1.0000
  0
VERTEX
  8
51
 10
231.6530
 20
-216.7272
 30
0.0000
  0
VERTEX
  8
51
 10
231.6530
 20
-216.0888
 30
0.0000
 42
1.0000
  0
SEQEND
  8
0
  0
POLYLINE
  8
51
 66
1
 10
0.0000
 20
0.0000
 30
0.0000
 40
0.0000
 41
0.0000
 70
1
  0
VERTEX
  8
51
 10
231.5959
 20
-216.7918
 30
0.0000
  0
VERTEX
  8
51
 10
234.1959
 20
-216.4725
 30
0.0000
 42
1.0000
  0
VERTEX
  8
51
 10
234.1801
 20
-216.3435
 30
0.0000
  0
VERTEX
  8
51
 10
231.5801
 20
-216.6627
 30
0.0000
 42
1.0000
  0
SEQEND
  8
0
  0
POLYLINE
  8
51
 66
1
 10
0.0000
 20
0.0000
 30
0.0000
 40
0.0000
 41
0.0000
 70
1
  0
VERTEX
  8
51
 10
234.1912
 20
-216.3431
 30
0.0000
  0
VERTEX
  8
51
 10
231.5912
 20
-216.2131
 30
0.0000
 42
1.0000
  0
VERTEX
  8
51
 10
231.5848
 20
-216.3429
 30
0.0000
  0
VERTEX
  8
51
 10
234.1848
 20
-216.4729
 30
0.0000
 42
1.0000
  0
SEQEND
  8
0
  0
POLYLINE
  8
51
 66
1
 10
0.0000
 20
0.0000
 30
0.0000
 40
0.0000
 41
0.0000
 70
1
  0
VERTEX
  8
51
 10
231.5912
 20
-216.6029
 30
0.0000
  0
VERTEX
  8
51
 10
234.1912
 20
-216.4729
 30
0.0000
 42
1.0000
  0
VERTEX
  8
51
 10
234.1848
 20
-216.3431
 30
0.0000
  0
VERTEX
  8
51
 10
231.5848
 20
-216.4731
 30
0.0000
 42
1.0000
  0
SEQEND
  8
0
  0
POLYLINE
  8
51
 66
1
 10
0.0000
 20
0.0000
 30
0.0000
 40
0.0000
 41
0.0000
 70
1
  0
VERTEX
  8
51
 10
234.1945
 20
-216.3433
 30
0.0000
  0
VERTEX
  8
51
 10
231.5945
 20
-216.0833
 30
0.0000
 42
1.0000
  0
VERTEX
  8
51
 10
231.5815
 20
-216.2127
 30
0.0000
  0
VERTEX
  8
51
 10
234.1815
 20
-216.4727
 30
0.0000
 42
1.0000
  0
SEQEND
  8
0
  0
POLYLINE
  8
51
 66
1
 10
0.0000
 20
0.0000
 30
0.0000
 40
0.0000
 41
0.0000
 70
1
  0
VERTEX
  8
51
 10
231.5945
 20
-216.7327
 30
0.0000
  0
VERTEX
  8
51
 10
234.1945
 20
-216.4727
 30
0.0000
 42
1.0000
  0
VERTEX
  8
51
 10
234.1815
 20
-216.3433
 30
0.0000
  0
VERTEX
  8
51
 10
231.5815
 20
-216.6033
 30
0.0000
 42
1.0000
  0
SEQEND
  8
0
  0
POLYLINE
  8
51
 66
1
 10
0.0000
 20
0.0000
 30
0.0000
 40
0.0000
 41
0.0000
 70
1
  0
VERTEX
  8
51
 10
208.7959
 20
-216.4725
 30
0.0000
  0
VERTEX
  8
51
 10
211.3959
 20
-216.1533
 30
0.0000
 42
1.0000
  0
VERTEX
  8
51
 10
211.3801
 20
-216.0242
 30
0.0000
  0
VERTEX
  8
51
 10
208.7801
 20
-216.3435
 30
0.0000
 42
1.0000
  0
SEQEND
  8
0
  0
POLYLINE
  8
51
 66
1
 10
0.0000
 20
0.0000
 30
0.0000
 40
0.0000
 41
0.0000
 70
1
  0
VERTEX
  8
51
 10
211.3230
 20
-216.0888
 30
0.0000
  0
VERTEX
  8
51
 10
211.3230
 20
-216.7272
 30
0.0000
 42
1.0000
  0
VERTEX
  8
51
 10
211.4530
 20
-216.7272
 30
0.0000
  0
VERTEX
  8
51
 10
211.4530
 20
-216.0888
 30
0.0000
 42
1.0000
  0
SEQEND
  8
0
  0
POLYLINE
  8
51
 66
1
 10
0.0000
 20
0.0000
 30
0.0000
 40
0.0000
 41
0.0000
 70
1
  0
VERTEX
  8
51
 10
211.3959
 20
-216.6627
 30
0.0000
  0
VERTEX
  8
51
 10
208.7959
 20
-216.3435
 30
0.0000
 42
1.0000
  0
VERTEX
  8
51
 10
208.7801
 20
-216.4725
 30
0.0000
  0
VERTEX
  8
51
 10
211.3801
 20
-216.7918
 30
0.0000
 42
1.0000
  0
SEQEND
  8
0
  0
POLYLINE
  8
51
 66
1
 10
0.0000
 20
0.0000
 30
0.0000
 40
0.0000
 41
0.0000
 70
1
  0
VERTEX
  8
51
 10
208.7912
 20
-216.4729
 30
0.0000
  0
VERTEX
  8
51
 10
211.3912
 20
-216.3429
 30
0.0000
 42
1.0000
  0
VERTEX
  8
51
 10
211.3848
 20
-216.2131
 30
0.0000
  0
VERTEX
  8
51
 10
208.7848
 20
-216.3431
 30
0.0000
 42
1.0000
  0
SEQEND
  8
0
  0
POLYLINE
  8
51
 66
1
 10
0.0000
 20
0.0000
 30
0.0000
 40
0.0000
 41
0.0000
 70
1
  0
VERTEX
  8
51
 10
211.3912
 20
-216.4731
 30
0.0000
  0
VERTEX
  8
51
 10
208.7912
 20
-216.3431
 30
0.0000
 42
1.0000
  0
VERTEX
  8
51
 10
208.7848
 20
-216.4729
 30
0.0000
  0
VERTEX
  8
51
 10
211.3848
 20
-216.6029
 30
0.0000
 42
1.0000
  0
SEQEND
  8
0
  0
POLYLINE
  8
51
 66
1
 10
0.0000
 20
0.0000
 30
0.0000
 40
0.0000
 41
0.0000
 70
1
  0
VERTEX
  8
51
 10
208.7945
 20
-216.4727
 30
0.0000
  0
VERTEX
  8
51
 10
211.3945
 20
-216.2127
 30
0.0000
 42
1.0000
  0
VERTEX
  8
51
 10
211.3815
 20
-216.0833
 30
0.0000
  0
VERTEX
  8
51
 10
208.7815
 20
-216.3433
 30
0.0000
 42
1.0000
  0
SEQEND
  8
0
  0
POLYLINE
  8
51
 66
1
 10
0.0000
 20
0.0000
 30
0.0000
 40
0.0000
 41
0.0000
 70
1
  0
VERTEX
  8
51
 10
211.3945
 20
-216.6033
 30
0.0000
  0
VERTEX
  8
51
 10
208.7945
 20
-216.3433
 30
0.0000
 42
1.0000
  0
VERTEX
  8
51
 10
208.7815
 20
-216.4727
 30
0.0000
  0
VERTEX
  8
51
 10
211.3815
 20
-216.7327
 30
0.0000
 42
1.0000
  0
SEQEND
  8
0
  0
POLYLINE
  8
51
 66
1
 10
0.0000
 20
0.0000
 30
0.0000
 40
0.0000
 41
0.0000
 70
1
  0
VERTEX
  8
51
 10
221.5530
 20
-181.9292
 30
0.0000
  0
VERTEX
  8
51
 10
221.5530
 20
-181.2908
 30
0.0000
 42
1.0000
  0
VERTEX
  8
51
 10
221.4230
 20
-181.2908
 30
0.0000
  0
VERTEX
  8
51
 10
221.4230
 20
-181.9292
 30
0.0000
 42
1.0000
  0
SEQEND
  8
0
  0
POLYLINE
  8
51
 66
1
 10
0.0000
 20
0.0000
 30
0.0000
 40
0.0000
 41
0.0000
 70
1
  0
VERTEX
  8
51
 10
221.1688
 20
-181.6750
 30
0.0000
  0
VERTEX
  8
51
 10
221.8072
 20
-181.6750
 30
0.0000
 42
1.0000
  0
VERTEX
  8
51
 10
221.8072
 20
-181.5450
 30
0.0000
  0
VERTEX
  8
51
 10
221.1688
 20
-181.5450
 30
0.0000
 42
1.0000
  0
SEQEND
  8
0
  0
POLYLINE
  8
51
 66
1
 10
0.0000
 20
0.0000
 30
0.0000
 40
0.0000
 41
0.0000
 70
1
  0
VERTEX
  8
51
 10
220.1675
 20
-215.6811
 30
0.0000
  0
VERTEX
  8
51
 10
219.0828
 20
-215.6811
 30
0.0000
 42
1.0000
  0
VERTEX
  8
51
 10
219.0828
 20
-215.8335
 30
0.0000
  0
VERTEX
  8
51
 10
220.1675
 20
-215.8335
 30
0.0000
 42
1.0000
  0
SEQEND
  8
0
  0
POLYLINE
  8
51
 66
1
 10
0.0000
 20
0.0000
 30
0.0000
 40
0.0000
 41
0.0000
 70
1
  0
VERTEX
  8
51
 10
219.1367
 20
-215.8112
 30
0.0000
  0
VERTEX
  8
51
 10
220.2214
 20
-214.7265
 30
0.0000
 42
1.0000
  0
VERTEX
  8
51
 10
220.1136
 20
-214.6188
 30
0.0000
  0
VERTEX
  8
51
 10
219.0289
 20
-215.7034
 30
0.0000
 42
1.0000
  0
SEQEND
  8
0
  0
POLYLINE
  8
51
 66
1
 10
0.0000
 20
0.0000
 30
0.0000
 40
0.0000
 41
0.0000
 70
1
  0
VERTEX
  8
51
 10
220.2437
 20
-214.6726
 30
0.0000
  0
VERTEX
  8
51
 10
220.2437
 20
-214.4015
 30
0.0000
 42
1.0000
  0
VERTEX
  8
51
 10
220.0913
 20
-214.4015
 30
0.0000
  0
VERTEX
  8
51
 10
220.0913
 20
-214.6726
 30
0.0000
 42
1.0000
  0
SEQEND
  8
0
  0
POLYLINE
  8
51
 66
1
 10
0.0000
 20
0.0000
 30
0.0000
 40
0.0000
 41
0.0000
 70
1
  0
VERTEX
  8
51
 10
220.2213
 20
-214.3476
 30
0.0000
  0
VERTEX
  8
51
 10
219.9502
 20
-214.0764
 30
0.0000
 42
1.0000
  0
VERTEX
  8
51
 10
219.8424
 20
-214.1842
 30
0.0000
  0
VERTEX
  8
51
 10
220.1136
 20
-214.4554
 30
0.0000
 42
1.0000
  0
SEQEND
  8
0
  0
POLYLINE
  8
51
 66
1
 10
0.0000
 20
0.0000
 30
0.0000
 40
0.0000
 41
0.0000
 70
1
  0
VERTEX
  8
51
 10
219.8963
 20
-214.0541
 30
0.0000
  0
VERTEX
  8
51
 10
219.3540
 20
-214.0541
 30
0.0000
 42
1.0000
  0
VERTEX
  8
51
 10
219.3540
 20
-214.2065
 30
0.0000
  0
VERTEX
  8
51
 10
219.8963
 20
-214.2065
 30
0.0000
 42
1.0000
  0
SEQEND
  8
0
  0
POLYLINE
  8
51
 66
1
 10
0.0000
 20
0.0000
 30
0.0000
 40
0.0000
 41
0.0000
 70
1
  0
VERTEX
  8
51
 10
219.3001
 20
-214.0764
 30
0.0000
  0
VERTEX
  8
51
 10
219.0289
 20
-214.3476
 30
0.0000
 42
1.0000
  0
VERTEX
  8
51
 10
219.1367
 20
-214.4554
 30
0.0000
  0
VERTEX
  8
51
 10
219.4079
 20
-214.1842
 30
0.0000
 42
1.0000
  0
SEQEND
  8
0
  0
POLYLINE
  8
51
 66
1
 10
0.0000
 20
0.0000
 30
0.0000
 40
0.0000
 41
0.0000
 70
1
  0
VERTEX
  8
51
 10
221.8046
 20
-214.0541
 30
0.0000
  0
VERTEX
  8
51
 10
220.7200
 20
-214.0541
 30
0.0000
 42
1.0000
  0
VERTEX
  8
51
 10
220.7200
 20
-214.2065
 30
0.0000
  0
VERTEX
  8
51
 10
221.8046
 20
-214.2065
 30
0.0000
 42
1.0000
  0
SEQEND
  8
0
  0
POLYLINE
  8
51
 66
1
 10
0.0000
 20
0.0000
 30
0.0000
 40
0.0000
 41
0.0000
 70
1
  0
VERTEX
  8
51
 10
220.6438
 20
-214.1303
 30
0.0000
  0
VERTEX
  8
51
 10
220.6438
 20
-214.9438
 30
0.0000
 42
1.0000
  0
VERTEX
  8
51
 10
220.7962
 20
-214.9438
 30
0.0000
  0
VERTEX
  8
51
 10
220.7962
 20
-214.1303
 30
0.0000
 42
1.0000
  0
SEQEND
  8
0
  0
POLYLINE
  8
51
 66
1
 10
0.0000
 20
0.0000
 30
0.0000
 40
0.0000
 41
0.0000
 70
1
  0
VERTEX
  8
51
 10
220.7540
 20
-215.0120
 30
0.0000
  0
VERTEX
  8
51
 10
221.2964
 20
-214.7408
 30
0.0000
 42
1.0000
  0
VERTEX
  8
51
 10
221.2282
 20
-214.6045
 30
0.0000
  0
VERTEX
  8
51
 10
220.6859
 20
-214.8757
 30
0.0000
 42
1.0000
  0
SEQEND
  8
0
  0
POLYLINE
  8
51
 66
1
 10
0.0000
 20
0.0000
 30
0.0000
 40
0.0000
 41
0.0000
 70
1
  0
VERTEX
  8
51
 10
221.2623
 20
-214.7488
 30
0.0000
  0
VERTEX
  8
51
 10
221.5335
 20
-214.7488
 30
0.0000
 42
1.0000
  0
VERTEX
  8
51
 10
221.5335
 20
-214.5964
 30
0.0000
  0
VERTEX
  8
51
 10
221.2623
 20
-214.5964
 30
0.0000
 42
1.0000
  0
SEQEND
  8
0
  0
POLYLINE
  8
51
 66
1
 10
0.0000
 20
0.0000
 30
0.0000
 40
0.0000
 41
0.0000
 70
1
  0
VERTEX
  8
51
 10
221.4796
 20
-214.7265
 30
0.0000
  0
VERTEX
  8
51
 10
221.7507
 20
-214.9977
 30
0.0000
 42
1.0000
  0
VERTEX
  8
51
 10
221.8585
 20
-214.8899
 30
0.0000
  0
VERTEX
  8
51
 10
221.5873
 20
-214.6188
 30
0.0000
 42
1.0000
  0
SEQEND
  8
0
  0
POLYLINE
  8
51
 66
1
 10
0.0000
 20
0.0000
 30
0.0000
 40
0.0000
 41
0.0000
 70
1
  0
VERTEX
  8
51
 10
221.7284
 20
-214.9438
 30
0.0000
  0
VERTEX
  8
51
 10
221.7284
 20
-215.4861
 30
0.0000
 42
1.0000
  0
VERTEX
  8
51
 10
221.8808
 20
-215.4861
 30
0.0000
  0
VERTEX
  8
51
 10
221.8808
 20
-214.9438
 30
0.0000
 42
1.0000
  0
SEQEND
  8
0
  0
POLYLINE
  8
51
 66
1
 10
0.0000
 20
0.0000
 30
0.0000
 40
0.0000
 41
0.0000
 70
1
  0
VERTEX
  8
51
 10
221.7507
 20
-215.4323
 30
0.0000
  0
VERTEX
  8
51
 10
221.4796
 20
-215.7034
 30
0.0000
 42
1.0000
  0
VERTEX
  8
51
 10
221.5873
 20
-215.8112
 30
0.0000
  0
VERTEX
  8
51
 10
221.8585
 20
-215.5400
 30
0.0000
 42
1.0000
  0
SEQEND
  8
0
  0
POLYLINE
  8
51
 66
1
 10
0.0000
 20
0.0000
 30
0.0000
 40
0.0000
 41
0.0000
 70
1
  0
VERTEX
  8
51
 10
221.5335
 20
-215.6811
 30
0.0000
  0
VERTEX
  8
51
 10
220.9911
 20
-215.6811
 30
0.0000
 42
1.0000
  0
VERTEX
  8
51
 10
220.9911
 20
-215.8335
 30
0.0000
  0
VERTEX
  8
51
 10
221.5335
 20
-215.8335
 30
0.0000
 42
1.0000
  0
SEQEND
  8
0
  0
POLYLINE
  8
51
 66
1
 10
0.0000
 20
0.0000
 30
0.0000
 40
0.0000
 41
0.0000
 70
1
  0
VERTEX
  8
51
 10
221.0450
 20
-215.7034
 30
0.0000
  0
VERTEX
  8
51
 10
220.7738
 20
-215.4323
 30
0.0000
 42
1.0000
  0
VERTEX
  8
51
 10
220.6661
 20
-215.5400
 30
0.0000
  0
VERTEX
  8
51
 10
220.9372
 20
-215.8112
 30
0.0000
 42
1.0000
  0
SEQEND
  8
0
  0
POLYLINE
  8
51
 66
1
 10
0.0000
 20
0.0000
 30
0.0000
 40
0.0000
 41
0.0000
 70
1
  0
VERTEX
  8
51
 10
222.4333
 20
-215.7573
 30
0.0000
  0
VERTEX
  8
51
 10
222.4333
 20
-215.4861
 30
0.0000
 42
1.0000
  0
VERTEX
  8
51
 10
222.2809
 20
-215.4861
 30
0.0000
  0
VERTEX
  8
51
 10
222.2809
 20
-215.7573
 30
0.0000
 42
1.0000
  0
SEQEND
  8
0
  0
POLYLINE
  8
51
 66
1
 10
0.0000
 20
0.0000
 30
0.0000
 40
0.0000
 41
0.0000
 70
1
  0
VERTEX
  8
51
 10
222.3571
 20
-215.5623
 30
0.0000
  0
VERTEX
  8
51
 10
222.6283
 20
-215.5623
 30
0.0000
 42
1.0000
  0
VERTEX
  8
51
 10
222.6283
 20
-215.4099
 30
0.0000
  0
VERTEX
  8
51
 10
222.3571
 20
-215.4099
 30
0.0000
 42
1.0000
  0
SEQEND
  8
0
  0
POLYLINE
  8
51
 66
1
 10
0.0000
 20
0.0000
 30
0.0000
 40
0.0000
 41
0.0000
 70
1
  0
VERTEX
  8
51
 10
222.5521
 20
-215.4861
 30
0.0000
  0
VERTEX
  8
51
 10
222.5521
 20
-215.7573
 30
0.0000
 42
1.0000
  0
VERTEX
  8
51
 10
222.7045
 20
-215.7573
 30
0.0000
  0
VERTEX
  8
51
 10
222.7045
 20
-215.4861
 30
0.0000
 42
1.0000
  0
SEQEND
  8
0
  0
POLYLINE
  8
51
 66
1
 10
0.0000
 20
0.0000
 30
0.0000
 40
0.0000
 41
0.0000
 70
1
  0
VERTEX
  8
51
 10
222.6283
 20
-215.6811
 30
0.0000
  0
VERTEX
  8
51
 10
222.3571
 20
-215.6811
 30
0.0000
 42
1.0000
  0
VERTEX
  8
51
 10
222.3571
 20
-215.8335
 30
0.0000
  0
VERTEX
  8
51
 10
222.6283
 20
-215.8335
 30
0.0000
 42
1.0000
  0
SEQEND
  8
0
  0
POLYLINE
  8
51
 66
1
 10
0.0000
 20
0.0000
 30
0.0000
 40
0.0000
 41
0.0000
 70
1
  0
VERTEX
  8
51
 10
224.0654
 20
-215.7573
 30
0.0000
  0
VERTEX
  8
51
 10
224.0654
 20
-214.1303
 30
0.0000
 42
1.0000
  0
VERTEX
  8
51
 10
223.9130
 20
-214.1303
 30
0.0000
  0
VERTEX
  8
51
 10
223.9130
 20
-215.7573
 30
0.0000
 42
1.0000
  0
SEQEND
  8
0
  0
POLYLINE
  8
51
 66
1
 10
0.0000
 20
0.0000
 30
0.0000
 40
0.0000
 41
0.0000
 70
1
  0
VERTEX
  8
51
 10
223.9353
 20
-214.0764
 30
0.0000
  0
VERTEX
  8
51
 10
223.1218
 20
-214.8899
 30
0.0000
 42
1.0000
  0
VERTEX
  8
51
 10
223.2296
 20
-214.9977
 30
0.0000
  0
VERTEX
  8
51
 10
224.0431
 20
-214.1842
 30
0.0000
 42
1.0000
  0
SEQEND
  8
0
  0
POLYLINE
  8
51
 66
1
 10
0.0000
 20
0.0000
 30
0.0000
 40
0.0000
 41
0.0000
 70
1
  0
VERTEX
  8
51
 10
223.1757
 20
-215.0200
 30
0.0000
  0
VERTEX
  8
51
 10
224.2604
 20
-215.0200
 30
0.0000
 42
1.0000
  0
VERTEX
  8
51
 10
224.2604
 20
-214.8676
 30
0.0000
  0
VERTEX
  8
51
 10
223.1757
 20
-214.8676
 30
0.0000
 42
1.0000
  0
SEQEND
  8
0
  0
POLYLINE
  8
51
 66
1
 10
0.0000
 20
0.0000
 30
0.0000
 40
0.0000
 41
0.0000
 70
1
  0
VERTEX
  8
51
 10
230.0230
 20
-181.6100
 30
0.0000
  0
VERTEX
  8
51
 10
230.0230
 20
-215.3100
 30
0.0000
 42
1.0000
  0
VERTEX
  8
51
 10
230.1530
 20
-215.3100
 30
0.0000
  0
VERTEX
  8
51
 10
230.1530
 20
-181.6100
 30
0.0000
 42
1.0000
  0
SEQEND
  8
0
  0
POLYLINE
  8
51
 66
1
 10
0.0000
 20
0.0000
 30
0.0000
 40
0.0000
 41
0.0000
 70
1
  0
VERTEX
  8
51
 10
212.8230
 20
-181.6100
 30
0.0000
  0
VERTEX
  8
51
 10
212.8230
 20
-215.3100
 30
0.0000
 42
1.0000
  0
VERTEX
  8
51
 10
212.9530
 20
-215.3100
 30
0.0000
  0
VERTEX
  8
51
 10
212.9530
 20
-181.6100
 30
0.0000
 42
1.0000
  0
SEQEND
  8
0
  0
POLYLINE
  8
51
 66
1
 10
0.0000
 20
0.0000
 30
0.0000
 40
0.0000
 41
0.0000
 70
1
  0
VERTEX
  8
51
 10
230.0880
 20
-213.2950
 30
0.0000
  0
VERTEX
  8
51
 10
212.8880
 20
-213.2950
 30
0.0000
 42
1.0000
  0
VERTEX
  8
51
 10
212.8880
 20
-213.4250
 30
0.0000
  0
VERTEX
  8
51
 10
230.0880
 20
-213.4250
 30
0.0000
 42
1.0000
  0
SEQEND
  8
0
  0
POLYLINE
  8
51
 66
1
 10
0.0000
 20
0.0000
 30
0.0000
 40
0.0000
 41
0.0000
 70
1
  0
VERTEX
  8
51
 10
230.0959
 20
-213.2955
 30
0.0000
  0
VERTEX
  8
51
 10
227.4959
 20
-212.9762
 30
0.0000
 42
1.0000
  0
VERTEX
  8
51
 10
227.4801
 20
-213.1053
 30
0.0000
  0
VERTEX
  8
51
 10
230.0801
 20
-213.4245
 30
0.0000
 42
1.0000
  0
SEQEND
  8
0
  0
POLYLINE
  8
51
 66
1
 10
0.0000
 20
0.0000
 30
0.0000
 40
0.0000
 41
0.0000
 70
1
  0
VERTEX
  8
51
 10
227.4230
 20
-213.0408
 30
0.0000
  0
VERTEX
  8
51
 10
227.4230
 20
-213.6792
 30
0.0000
 42
1.0000
  0
VERTEX
  8
51
 10
227.5530
 20
-213.6792
 30
0.0000
  0
VERTEX
  8
51
 10
227.5530
 20
-213.0408
 30
0.0000
 42
1.0000
  0
SEQEND
  8
0
  0
POLYLINE
  8
51
 66
1
 10
0.0000
 20
0.0000
 30
0.0000
 40
0.0000
 41
0.0000
 70
1
  0
VERTEX
  8
51
 10
227.4959
 20
-213.7438
 30
0.0000
  0
VERTEX
  8
51
 10
230.0959
 20
-213.4245
 30
0.0000
 42
1.0000
  0
VERTEX
  8
51
 10
230.0801
 20
-213.2955
 30
0.0000
  0
VERTEX
  8
51
 10
227.4801
 20
-213.6147
 30
0.0000
 42
1.0000
  0
SEQEND
  8
0
  0
POLYLINE
  8
51
 66
1
 10
0.0000
 20
0.0000
 30
0.0000
 40
0.0000
 41
0.0000
 70
1
  0
VERTEX
  8
51
 10
230.0912
 20
-213.2951
 30
0.0000
  0
VERTEX
  8
51
 10
227.4912
 20
-213.1651
 30
0.0000
 42
1.0000
  0
VERTEX
  8
51
 10
227.4848
 20
-213.2949
 30
0.0000
  0
VERTEX
  8
51
 10
230.0848
 20
-213.4249
 30
0.0000
 42
1.0000
  0
SEQEND
  8
0
  0
POLYLINE
  8
51
 66
1
 10
0.0000
 20
0.0000
 30
0.0000
 40
0.0000
 41
0.0000
 70
1
  0
VERTEX
  8
51
 10
227.4912
 20
-213.5549
 30
0.0000
  0
VERTEX
  8
51
 10
230.0912
 20
-213.4249
 30
0.0000
 42
1.0000
  0
VERTEX
  8
51
 10
230.0848
 20
-213.2951
 30
0.0000
  0
VERTEX
  8
51
 10
227.4848
 20
-213.4251
 30
0.0000
 42
1.0000
  0
SEQEND
  8
0
  0
POLYLINE
  8
51
 66
1
 10
0.0000
 20
0.0000
 30
0.0000
 40
0.0000
 41
0.0000
 70
1
  0
VERTEX
  8
51
 10
230.0945
 20
-213.2953
 30
0.0000
  0
VERTEX
  8
51
 10
227.4945
 20
-213.0353
 30
0.0000
 42
1.0000
  0
VERTEX
  8
51
 10
227.4815
 20
-213.1647
 30
0.0000
  0
VERTEX
  8
51
 10
230.0815
 20
-213.4247
 30
0.0000
 42
1.0000
  0
SEQEND
  8
0
  0
POLYLINE
  8
51
 66
1
 10
0.0000
 20
0.0000
 30
0.0000
 40
0.0000
 41
0.0000
 70
1
  0
VERTEX
  8
51
 10
227.4945
 20
-213.6847
 30
0.0000
  0
VERTEX
  8
51
 10
230.0945
 20
-213.4247
 30
0.0000
 42
1.0000
  0
VERTEX
  8
51
 10
230.0815
 20
-213.2953
 30
0.0000
  0
VERTEX
  8
51
 10
227.4815
 20
-213.5553
 30
0.0000
 42
1.0000
  0
SEQEND
  8
0
  0
POLYLINE
  8
51
 66
1
 10
0.0000
 20
0.0000
 30
0.0000
 40
0.0000
 41
0.0000
 70
1
  0
VERTEX
  8
51
 10
212.8959
 20
-213.4245
 30
0.0000
  0
VERTEX
  8
51
 10
215.4959
 20
-213.1053
 30
0.0000
 42
1.0000
  0
VERTEX
  8
51
 10
215.4801
 20
-212.9762
 30
0.0000
  0
VERTEX
  8
51
 10
212.8801
 20
-213.2955
 30
0.0000
 42
1.0000
  0
SEQEND
  8
0
  0
POLYLINE
  8
51
 66
1
 10
0.0000
 20
0.0000
 30
0.0000
 40
0.0000
 41
0.0000
 70
1
  0
VERTEX
  8
51
 10
215.4230
 20
-213.0408
 30
0.0000
  0
VERTEX
  8
51
 10
215.4230
 20
-213.6792
 30
0.0000
 42
1.0000
  0
VERTEX
  8
51
 10
215.5530
 20
-213.6792
 30
0.0000
  0
VERTEX
  8
51
 10
215.5530
 20
-213.0408
 30
0.0000
 42
1.0000
  0
SEQEND
  8
0
  0
POLYLINE
  8
51
 66
1
 10
0.0000
 20
0.0000
 30
0.0000
 40
0.0000
 41
0.0000
 70
1
  0
VERTEX
  8
51
 10
215.4959
 20
-213.6147
 30
0.0000
  0
VERTEX
  8
51
 10
212.8959
 20
-213.2955
 30
0.0000
 42
1.0000
  0
VERTEX
  8
51
 10
212.8801
 20
-213.4245
 30
0.0000
  0
VERTEX
  8
51
 10
215.4801
 20
-213.7438
 30
0.0000
 42
1.0000
  0
SEQEND
  8
0
  0
POLYLINE
  8
51
 66
1
 10
0.0000
 20
0.0000
 30
0.0000
 40
0.0000
 41
0.0000
 70
1
  0
VERTEX
  8
51
 10
212.8912
 20
-213.4249
 30
0.0000
  0
VERTEX
  8
51
 10
215.4912
 20
-213.2949
 30
0.0000
 42
1.0000
  0
VERTEX
  8
51
 10
215.4848
 20
-213.1651
 30
0.0000
  0
VERTEX
  8
51
 10
212.8848
 20
-213.2951
 30
0.0000
 42
1.0000
  0
SEQEND
  8
0
  0
POLYLINE
  8
51
 66
1
 10
0.0000
 20
0.0000
 30
0.0000
 40
0.0000
 41
0.0000
 70
1
  0
VERTEX
  8
51
 10
215.4912
 20
-213.4251
 30
0.0000
  0
VERTEX
  8
51
 10
212.8912
 20
-213.2951
 30
0.0000
 42
1.0000
  0
VERTEX
  8
51
 10
212.8848
 20
-213.4249
 30
0.0000
  0
VERTEX
  8
51
 10
215.4848
 20
-213.5549
 30
0.0000
 42
1.0000
  0
SEQEND
  8
0
  0
POLYLINE
  8
51
 66
1
 10
0.0000
 20
0.0000
 30
0.0000
 40
0.0000
 41
0.0000
 70
1
  0
VERTEX
  8
51
 10
212.8945
 20
-213.4247
 30
0.0000
  0
VERTEX
  8
51
 10
215.4945
 20
-213.1647
 30
0.0000
 42
1.0000
  0
VERTEX
  8
51
 10
215.4815
 20
-213.0353
 30
0.0000
  0
VERTEX
  8
51
 10
212.8815
 20
-213.2953
 30
0.0000
 42
1.0000
  0
SEQEND
  8
0
  0
POLYLINE
  8
51
 66
1
 10
0.0000
 20
0.0000
 30
0.0000
 40
0.0000
 41
0.0000
 70
1
  0
VERTEX
  8
51
 10
215.4945
 20
-213.5553
 30
0.0000
  0
VERTEX
  8
51
 10
212.8945
 20
-213.2953
 30
0.0000
 42
1.0000
  0
VERTEX
  8
51
 10
212.8815
 20
-213.4247
 30
0.0000
  0
VERTEX
  8
51
 10
215.4815
 20
-213.6847
 30
0.0000
 42
1.0000
  0
SEQEND
  8
0
  0
POLYLINE
  8
51
 66
1
 10
0.0000
 20
0.0000
 30
0.0000
 40
0.0000
 41
0.0000
 70
1
  0
VERTEX
  8
51
 10
221.5530
 20
-181.9292
 30
0.0000
  0
VERTEX
  8
51
 10
221.5530
 20
-181.2908
 30
0.0000
 42
1.0000
  0
VERTEX
  8
51
 10
221.4230
 20
-181.2908
 30
0.0000
  0
VERTEX
  8
51
 10
221.4230
 20
-181.9292
 30
0.0000
 42
1.0000
  0
SEQEND
  8
0
  0
POLYLINE
  8
51
 66
1
 10
0.0000
 20
0.0000
 30
0.0000
 40
0.0000
 41
0.0000
 70
1
  0
VERTEX
  8
51
 10
221.1688
 20
-181.6750
 30
0.0000
  0
VERTEX
  8
51
 10
221.8072
 20
-181.6750
 30
0.0000
 42
1.0000
  0
VERTEX
  8
51
 10
221.8072
 20
-181.5450
 30
0.0000
  0
VERTEX
  8
51
 10
221.1688
 20
-181.5450
 30
0.0000
 42
1.0000
  0
SEQEND
  8
0
  0
POLYLINE
  8
51
 66
1
 10
0.0000
 20
0.0000
 30
0.0000
 40
0.0000
 41
0.0000
 70
1
  0
VERTEX
  8
51
 10
219.1367
 20
-211.6785
 30
0.0000
  0
VERTEX
  8
51
 10
219.6790
 20
-211.1362
 30
0.0000
 42
1.0000
  0
VERTEX
  8
51
 10
219.5713
 20
-211.0284
 30
0.0000
  0
VERTEX
  8
51
 10
219.0289
 20
-211.5708
 30
0.0000
 42
1.0000
  0
SEQEND
  8
0
  0
POLYLINE
  8
51
 66
1
 10
0.0000
 20
0.0000
 30
0.0000
 40
0.0000
 41
0.0000
 70
1
  0
VERTEX
  8
51
 10
219.5489
 20
-211.0823
 30
0.0000
  0
VERTEX
  8
51
 10
219.5489
 20
-212.7093
 30
0.0000
 42
1.0000
  0
VERTEX
  8
51
 10
219.7013
 20
-212.7093
 30
0.0000
  0
VERTEX
  8
51
 10
219.7013
 20
-211.0823
 30
0.0000
 42
1.0000
  0
SEQEND
  8
0
  0
POLYLINE
  8
51
 66
1
 10
0.0000
 20
0.0000
 30
0.0000
 40
0.0000
 41
0.0000
 70
1
  0
VERTEX
  8
51
 10
219.0828
 20
-212.7855
 30
0.0000
  0
VERTEX
  8
51
 10
220.1675
 20
-212.7855
 30
0.0000
 42
1.0000
  0
VERTEX
  8
51
 10
220.1675
 20
-212.6331
 30
0.0000
  0
VERTEX
  8
51
 10
219.0828
 20
-212.6331
 30
0.0000
 42
1.0000
  0
SEQEND
  8
0
  0
POLYLINE
  8
51
 66
1
 10
0.0000
 20
0.0000
 30
0.0000
 40
0.0000
 41
0.0000
 70
1
  0
VERTEX
  8
51
 10
220.7200
 20
-211.1585
 30
0.0000
  0
VERTEX
  8
51
 10
221.8046
 20
-211.1585
 30
0.0000
 42
1.0000
  0
VERTEX
  8
51
 10
221.8046
 20
-211.0061
 30
0.0000
  0
VERTEX
  8
51
 10
220.7200
 20
-211.0061
 30
0.0000
 42
1.0000
  0
SEQEND
  8
0
  0
POLYLINE
  8
51
 66
1
 10
0.0000
 20
0.0000
 30
0.0000
 40
0.0000
 41
0.0000
 70
1
  0
VERTEX
  8
51
 10
221.7284
 20
-211.0823
 30
0.0000
  0
VERTEX
  8
51
 10
221.7284
 20
-211.3535
 30
0.0000
 42
1.0000
  0
VERTEX
  8
51
 10
221.8808
 20
-211.3535
 30
0.0000
  0
VERTEX
  8
51
 10
221.8808
 20
-211.0823
 30
0.0000
 42
1.0000
  0
SEQEND
  8
0
  0
POLYLINE
  8
51
 66
1
 10
0.0000
 20
0.0000
 30
0.0000
 40
0.0000
 41
0.0000
 70
1
  0
VERTEX
  8
51
 10
221.7507
 20
-211.2996
 30
0.0000
  0
VERTEX
  8
51
 10
220.6661
 20
-212.3843
 30
0.0000
 42
1.0000
  0
VERTEX
  8
51
 10
220.7738
 20
-212.4920
 30
0.0000
  0
VERTEX
  8
51
 10
221.8585
 20
-211.4074
 30
0.0000
 42
1.0000
  0
SEQEND
  8
0
  0
POLYLINE
  8
51
 66
1
 10
0.0000
 20
0.0000
 30
0.0000
 40
0.0000
 41
0.0000
 70
1
  0
VERTEX
  8
51
 10
220.6438
 20
-212.4381
 30
0.0000
  0
VERTEX
  8
51
 10
220.6438
 20
-212.7093
 30
0.0000
 42
1.0000
  0
VERTEX
  8
51
 10
220.7962
 20
-212.7093
 30
0.0000
  0
VERTEX
  8
51
 10
220.7962
 20
-212.4381
 30
0.0000
 42
1.0000
  0
SEQEND
  8
0
  0
POLYLINE
  8
51
 66
1
 10
0.0000
 20
0.0000
 30
0.0000
 40
0.0000
 41
0.0000
 70
1
  0
VERTEX
  8
51
 10
222.4333
 20
-212.7093
 30
0.0000
  0
VERTEX
  8
51
 10
222.4333
 20
-212.4381
 30
0.0000
 42
1.0000
  0
VERTEX
  8
51
 10
222.2809
 20
-212.4381
 30
0.0000
  0
VERTEX
  8
51
 10
222.2809
 20
-212.7093
 30
0.0000
 42
1.0000
  0
SEQEND
  8
0
  0
POLYLINE
  8
51
 66
1
 10
0.0000
 20
0.0000
 30
0.0000
 40
0.0000
 41
0.0000
 70
1
  0
VERTEX
  8
51
 10
222.3571
 20
-212.5143
 30
0.0000
  0
VERTEX
  8
51
 10
222.6283
 20
-212.5143
 30
0.0000
 42
1.0000
  0
VERTEX
  8
51
 10
222.6283
 20
-212.3619
 30
0.0000
  0
VERTEX
  8
51
 10
222.3571
 20
-212.3619
 30
0.0000
 42
1.0000
  0
SEQEND
  8
0
  0
POLYLINE
  8
51
 66
1
 10
0.0000
 20
0.0000
 30
0.0000
 40
0.0000
 41
0.0000
 70
1
  0
VERTEX
  8
51
 10
222.5521
 20
-212.4381
 30
0.0000
  0
VERTEX
  8
51
 10
222.5521
 20
-212.7093
 30
0.0000
 42
1.0000
  0
VERTEX
  8
51
 10
222.7045
 20
-212.7093
 30
0.0000
  0
VERTEX
  8
51
 10
222.7045
 20
-212.4381
 30
0.0000
 42
1.0000
  0
SEQEND
  8
0
  0
POLYLINE
  8
51
 66
1
 10
0.0000
 20
0.0000
 30
0.0000
 40
0.0000
 41
0.0000
 70
1
  0
VERTEX
  8
51
 10
222.6283
 20
-212.6331
 30
0.0000
  0
VERTEX
  8
51
 10
222.3571
 20
-212.6331
 30
0.0000
 42
1.0000
  0
VERTEX
  8
51
 10
222.3571
 20
-212.7855
 30
0.0000
  0
VERTEX
  8
51
 10
222.6283
 20
-212.7855
 30
0.0000
 42
1.0000
  0
SEQEND
  8
0
  0
POLYLINE
  8
51
 66
1
 10
0.0000
 20
0.0000
 30
0.0000
 40
0.0000
 41
0.0000
 70
1
  0
VERTEX
  8
51
 10
224.2604
 20
-212.6331
 30
0.0000
  0
VERTEX
  8
51
 10
223.1757
 20
-212.6331
 30
0.0000
 42
1.0000
  0
VERTEX
  8
51
 10
223.1757
 20
-212.7855
 30
0.0000
  0
VERTEX
  8
51
 10
224.2604
 20
-212.7855
 30
0.0000
 42
1.0000
  0
SEQEND
  8
0
  0
POLYLINE
  8
51
 66
1
 10
0.0000
 20
0.0000
 30
0.0000
 40
0.0000
 41
0.0000
 70
1
  0
VERTEX
  8
51
 10
223.2296
 20
-212.7632
 30
0.0000
  0
VERTEX
  8
51
 10
224.3142
 20
-211.6785
 30
0.0000
 42
1.0000
  0
VERTEX
  8
51
 10
224.2065
 20
-211.5708
 30
0.0000
  0
VERTEX
  8
51
 10
223.1218
 20
-212.6554
 30
0.0000
 42
1.0000
  0
SEQEND
  8
0
  0
POLYLINE
  8
51
 66
1
 10
0.0000
 20
0.0000
 30
0.0000
 40
0.0000
 41
0.0000
 70
1
  0
VERTEX
  8
51
 10
224.3366
 20
-211.6246
 30
0.0000
  0
VERTEX
  8
51
 10
224.3366
 20
-211.3535
 30
0.0000
 42
1.0000
  0
VERTEX
  8
51
 10
224.1842
 20
-211.3535
 30
0.0000
  0
VERTEX
  8
51
 10
224.1842
 20
-211.6246
 30
0.0000
 42
1.0000
  0
SEQEND
  8
0
  0
POLYLINE
  8
51
 66
1
 10
0.0000
 20
0.0000
 30
0.0000
 40
0.0000
 41
0.0000
 70
1
  0
VERTEX
  8
51
 10
224.3142
 20
-211.2996
 30
0.0000
  0
VERTEX
  8
51
 10
224.0431
 20
-211.0284
 30
0.0000
 42
1.0000
  0
VERTEX
  8
51
 10
223.9353
 20
-211.1362
 30
0.0000
  0
VERTEX
  8
51
 10
224.2065
 20
-211.4074
 30
0.0000
 42
1.0000
  0
SEQEND
  8
0
  0
POLYLINE
  8
51
 66
1
 10
0.0000
 20
0.0000
 30
0.0000
 40
0.0000
 41
0.0000
 70
1
  0
VERTEX
  8
51
 10
223.9892
 20
-211.0061
 30
0.0000
  0
VERTEX
  8
51
 10
223.4469
 20
-211.0061
 30
0.0000
 42
1.0000
  0
VERTEX
  8
51
 10
223.4469
 20
-211.1585
 30
0.0000
  0
VERTEX
  8
51
 10
223.9892
 20
-211.1585
 30
0.0000
 42
1.0000
  0
SEQEND
  8
0
  0
POLYLINE
  8
51
 66
1
 10
0.0000
 20
0.0000
 30
0.0000
 40
0.0000
 41
0.0000
 70
1
  0
VERTEX
  8
51
 10
223.3930
 20
-211.0284
 30
0.0000
  0
VERTEX
  8
51
 10
223.1218
 20
-211.2996
 30
0.0000
 42
1.0000
  0
VERTEX
  8
51
 10
223.2296
 20
-211.4074
 30
0.0000
  0
VERTEX
  8
51
 10
223.5007
 20
-211.1362
 30
0.0000
 42
1.0000
  0
SEQEND
  8
0
  0
POLYLINE
  8
51
 66
1
 10
0.0000
 20
0.0000
 30
0.0000
 40
0.0000
 41
0.0000
 70
1
  0
VERTEX
  8
51
 10
229.0230
 20
-181.6100
 30
0.0000
  0
VERTEX
  8
51
 10
229.0230
 20
-211.7540
 30
0.0000
 42
1.0000
  0
VERTEX
  8
51
 10
229.1530
 20
-211.7540
 30
0.0000
  0
VERTEX
  8
51
 10
229.1530
 20
-181.6100
 30
0.0000
 42
1.0000
  0
SEQEND
  8
0
  0
POLYLINE
  8
51
 66
1
 10
0.0000
 20
0.0000
 30
0.0000
 40
0.0000
 41
0.0000
 70
1
  0
VERTEX
  8
51
 10
213.8230
 20
-181.6100
 30
0.0000
  0
VERTEX
  8
51
 10
213.8230
 20
-211.7540
 30
0.0000
 42
1.0000
  0
VERTEX
  8
51
 10
213.9530
 20
-211.7540
 30
0.0000
  0
VERTEX
  8
51
 10
213.9530
 20
-181.6100
 30
0.0000
 42
1.0000
  0
SEQEND
  8
0
  0
POLYLINE
  8
51
 66
1
 10
0.0000
 20
0.0000
 30
0.0000
 40
0.0000
 41
0.0000
 70
1
  0
VERTEX
  8
51
 10
229.0880
 20
-209.7390
 30
0.0000
  0
VERTEX
  8
51
 10
213.8880
 20
-209.7390
 30
0.0000
 42
1.0000
  0
VERTEX
  8
51
 10
213.8880
 20
-209.8690
 30
0.0000
  0
VERTEX
  8
51
 10
229.0880
 20
-209.8690
 30
0.0000
 42
1.0000
  0
SEQEND
  8
0
  0
POLYLINE
  8
51
 66
1
 10
0.0000
 20
0.0000
 30
0.0000
 40
0.0000
 41
0.0000
 70
1
  0
VERTEX
  8
51
 10
229.0959
 20
-209.7395
 30
0.0000
  0
VERTEX
  8
51
 10
226.4959
 20
-209.4202
 30
0.0000
 42
1.0000
  0
VERTEX
  8
51
 10
226.4801
 20
-209.5493
 30
0.0000
  0
VERTEX
  8
51
 10
229.0801
 20
-209.8685
 30
0.0000
 42
1.0000
  0
SEQEND
  8
0
  0
POLYLINE
  8
51
 66
1
 10
0.0000
 20
0.0000
 30
0.0000
 40
0.0000
 41
0.0000
 70
1
  0
VERTEX
  8
51
 10
226.4230
 20
-209.4848
 30
0.0000
  0
VERTEX
  8
51
 10
226.4230
 20
-210.1232
 30
0.0000
 42
1.0000
  0
VERTEX
  8
51
 10
226.5530
 20
-210.1232
 30
0.0000
  0
VERTEX
  8
51
 10
226.5530
 20
-209.4848
 30
0.0000
 42
1.0000
  0
SEQEND
  8
0
  0
POLYLINE
  8
51
 66
1
 10
0.0000
 20
0.0000
 30
0.0000
 40
0.0000
 41
0.0000
 70
1
  0
VERTEX
  8
51
 10
226.4959
 20
-210.1878
 30
0.0000
  0
VERTEX
  8
51
 10
229.0959
 20
-209.8685
 30
0.0000
 42
1.0000
  0
VERTEX
  8
51
 10
229.0801
 20
-209.7395
 30
0.0000
  0
VERTEX
  8
51
 10
226.4801
 20
-210.0587
 30
0.0000
 42
1.0000
  0
SEQEND
  8
0
  0
POLYLINE
  8
51
 66
1
 10
0.0000
 20
0.0000
 30
0.0000
 40
0.0000
 41
0.0000
 70
1
  0
VERTEX
  8
51
 10
229.0912
 20
-209.7391
 30
0.0000
  0
VERTEX
  8
51
 10
226.4912
 20
-209.6091
 30
0.0000
 42
1.0000
  0
VERTEX
  8
51
 10
226.4848
 20
-209.7389
 30
0.0000
  0
VERTEX
  8
51
 10
229.0848
 20
-209.8689
 30
0.0000
 42
1.0000
  0
SEQEND
  8
0
  0
POLYLINE
  8
51
 66
1
 10
0.0000
 20
0.0000
 30
0.0000
 40
0.0000
 41
0.0000
 70
1
  0
VERTEX
  8
51
 10
226.4912
 20
-209.9989
 30
0.0000
  0
VERTEX
  8
51
 10
229.0912
 20
-209.8689
 30
0.0000
 42
1.0000
  0
VERTEX
  8
51
 10
229.0848
 20
-209.7391
 30
0.0000
  0
VERTEX
  8
51
 10
226.4848
 20
-209.8691
 30
0.0000
 42
1.0000
  0
SEQEND
  8
0
  0
POLYLINE
  8
51
 66
1
 10
0.0000
 20
0.0000
 30
0.0000
 40
0.0000
 41
0.0000
 70
1
  0
VERTEX
  8
51
 10
229.0945
 20
-209.7393
 30
0.0000
  0
VERTEX
  8
51
 10
226.4945
 20
-209.4793
 30
0.0000
 42
1.0000
  0
VERTEX
  8
51
 10
226.4815
 20
-209.6087
 30
0.0000
  0
VERTEX
  8
51
 10
229.0815
 20
-209.8687
 30
0.0000
 42
1.0000
  0
SEQEND
  8
0
  0
POLYLINE
  8
51
 66
1
 10
0.0000
 20
0.0000
 30
0.0000
 40
0.0000
 41
0.0000
 70
1
  0
VERTEX
  8
51
 10
226.4945
 20
-210.1287
 30
0.0000
  0
VERTEX
  8
51
 10
229.0945
 20
-209.8687
 30
0.0000
 42
1.0000
  0
VERTEX
  8
51
 10
229.0815
 20
-209.7393
 30
0.0000
  0
VERTEX
  8
51
 10
226.4815
 20
-209.9993
 30
0.0000
 42
1.0000
  0
SEQEND
  8
0
  0
POLYLINE
  8
51
 66
1
 10
0.0000
 20
0.0000
 30
0.0000
 40
0.0000
 41
0.0000
 70
1
  0
VERTEX
  8
51
 10
213.8959
 20
-209.8685
 30
0.0000
  0
VERTEX
  8
51
 10
216.4959
 20
-209.5493
 30
0.0000
 42
1.0000
  0
VERTEX
  8
51
 10
216.4801
 20
-209.4202
 30
0.0000
  0
VERTEX
  8
51
 10
213.8801
 20
-209.7395
 30
0.0000
 42
1.0000
  0
SEQEND
  8
0
  0
POLYLINE
  8
51
 66
1
 10
0.0000
 20
0.0000
 30
0.0000
 40
0.0000
 41
0.0000
 70
1
  0
VERTEX
  8
51
 10
216.4230
 20
-209.4848
 30
0.0000
  0
VERTEX
  8
51
 10
216.4230
 20
-210.1232
 30
0.0000
 42
1.0000
  0
VERTEX
  8
51
 10
216.5530
 20
-210.1232
 30
0.0000
  0
VERTEX
  8
51
 10
216.5530
 20
-209.4848
 30
0.0000
 42
1.0000
  0
SEQEND
  8
0
  0
POLYLINE
  8
51
 66
1
 10
0.0000
 20
0.0000
 30
0.0000
 40
0.0000
 41
0.0000
 70
1
  0
VERTEX
  8
51
 10
216.4959
 20
-210.0587
 30
0.0000
  0
VERTEX
  8
51
 10
213.8959
 20
-209.7395
 30
0.0000
 42
1.0000
  0
VERTEX
  8
51
 10
213.8801
 20
-209.8685
 30
0.0000
  0
VERTEX
  8
51
 10
216.4801
 20
-210.1878
 30
0.0000
 42
1.0000
  0
SEQEND
  8
0
  0
POLYLINE
  8
51
 66
1
 10
0.0000
 20
0.0000
 30
0.0000
 40
0.0000
 41
0.0000
 70
1
  0
VERTEX
  8
51
 10
213.8912
 20
-209.8689
 30
0.0000
  0
VERTEX
  8
51
 10
216.4912
 20
-209.7389
 30
0.0000
 42
1.0000
  0
VERTEX
  8
51
 10
216.4848
 20
-209.6091
 30
0.0000
  0
VERTEX
  8
51
 10
213.8848
 20
-209.7391
 30
0.0000
 42
1.0000
  0
SEQEND
  8
0
  0
POLYLINE
  8
51
 66
1
 10
0.0000
 20
0.0000
 30
0.0000
 40
0.0000
 41
0.0000
 70
1
  0
VERTEX
  8
51
 10
216.4912
 20
-209.8691
 30
0.0000
  0
VERTEX
  8
51
 10
213.8912
 20
-209.7391
 30
0.0000
 42
1.0000
  0
VERTEX
  8
51
 10
213.8848
 20
-209.8689
 30
0.0000
  0
VERTEX
  8
51
 10
216.4848
 20
-209.9989
 30
0.0000
 42
1.0000
  0
SEQEND
  8
0
  0
POLYLINE
  8
51
 66
1
 10
0.0000
 20
0.0000
 30
0.0000
 40
0.0000
 41
0.0000
 70
1
  0
VERTEX
  8
51
 10
213.8945
 20
-209.8687
 30
0.0000
  0
VERTEX
  8
51
 10
216.4945
 20
-209.6087
 30
0.0000
 42
1.0000
  0
VERTEX
  8
51
 10
216.4815
 20
-209.4793
 30
0.0000
  0
VERTEX
  8
51
 10
213.8815
 20
-209.7393
 30
0.0000
 42
1.0000
  0
SEQEND
  8
0
  0
POLYLINE
  8
51
 66
1
 10
0.0000
 20
0.0000
 30
0.0000
 40
0.0000
 41
0.0000
 70
1
  0
VERTEX
  8
51
 10
216.4945
 20
-209.9993
 30
0.0000
  0
VERTEX
  8
51
 10
213.8945
 20
-209.7393
 30
0.0000
 42
1.0000
  0
VERTEX
  8
51
 10
213.8815
 20
-209.8687
 30
0.0000
  0
VERTEX
  8
51
 10
216.4815
 20
-210.1287
 30
0.0000
 42
1.0000
  0
SEQEND
  8
0
  0
POLYLINE
  8
51
 66
1
 10
0.0000
 20
0.0000
 30
0.0000
 40
0.0000
 41
0.0000
 70
1
  0
VERTEX
  8
51
 10
221.5530
 20
-181.9292
 30
0.0000
  0
VERTEX
  8
51
 10
221.5530
 20
-181.2908
 30
0.0000
 42
1.0000
  0
VERTEX
  8
51
 10
221.4230
 20
-181.2908
 30
0.0000
  0
VERTEX
  8
51
 10
221.4230
 20
-181.9292
 30
0.0000
 42
1.0000
  0
SEQEND
  8
0
  0
POLYLINE
  8
51
 66
1
 10
0.0000
 20
0.0000
 30
0.0000
 40
0.0000
 41
0.0000
 70
1
  0
VERTEX
  8
51
 10
221.1688
 20
-181.6750
 30
0.0000
  0
VERTEX
  8
51
 10
221.8072
 20
-181.6750
 30
0.0000
 42
1.0000
  0
VERTEX
  8
51
 10
221.8072
 20
-181.5450
 30
0.0000
  0
VERTEX
  8
51
 10
221.1688
 20
-181.5450
 30
0.0000
 42
1.0000
  0
SEQEND
  8
0
  0
POLYLINE
  8
51
 66
1
 10
0.0000
 20
0.0000
 30
0.0000
 40
0.0000
 41
0.0000
 70
1
  0
VERTEX
  8
51
 10
219.1367
 20
-208.1225
 30
0.0000
  0
VERTEX
  8
51
 10
219.6790
 20
-207.5802
 30
0.0000
 42
1.0000
  0
VERTEX
  8
51
 10
219.5713
 20
-207.4724
 30
0.0000
  0
VERTEX
  8
51
 10
219.0289
 20
-208.0148
 30
0.0000
 42
1.0000
  0
SEQEND
  8
0
  0
POLYLINE
  8
51
 66
1
 10
0.0000
 20
0.0000
 30
0.0000
 40
0.0000
 41
0.0000
 70
1
  0
VERTEX
  8
51
 10
219.5489
 20
-207.5263
 30
0.0000
  0
VERTEX
  8
51
 10
219.5489
 20
-209.1533
 30
0.0000
 42
1.0000
  0
VERTEX
  8
51
 10
219.7013
 20
-209.1533
 30
0.0000
  0
VERTEX
  8
51
 10
219.7013
 20
-207.5263
 30
0.0000
 42
1.0000
  0
SEQEND
  8
0
  0
POLYLINE
  8
51
 66
1
 10
0.0000
 20
0.0000
 30
0.0000
 40
0.0000
 41
0.0000
 70
1
  0
VERTEX
  8
51
 10
219.0828
 20
-209.2295
 30
0.0000
  0
VERTEX
  8
51
 10
220.1675
 20
-209.2295
 30
0.0000
 42
1.0000
  0
VERTEX
  8
51
 10
220.1675
 20
-209.0771
 30
0.0000
  0
VERTEX
  8
51
 10
219.0828
 20
-209.0771
 30
0.0000
 42
1.0000
  0
SEQEND
  8
0
  0
POLYLINE
  8
51
 66
1
 10
0.0000
 20
0.0000
 30
0.0000
 40
0.0000
 41
0.0000
 70
1
  0
VERTEX
  8
51
 10
221.8046
 20
-207.4501
 30
0.0000
  0
VERTEX
  8
51
 10
220.7200
 20
-207.4501
 30
0.0000
 42
1.0000
  0
VERTEX
  8
51
 10
220.7200
 20
-207.6025
 30
0.0000
  0
VERTEX
  8
51
 10
221.8046
 20
-207.6025
 30
0.0000
 42
1.0000
  0
SEQEND
  8
0
  0
POLYLINE
  8
51
 66
1
 10
0.0000
 20
0.0000
 30
0.0000
 40
0.0000
 41
0.0000
 70
1
  0
VERTEX
  8
51
 10
220.6438
 20
-207.5263
 30
0.0000
  0
VERTEX
  8
51
 10
220.6438
 20
-208.3398
 30
0.0000
 42
1.0000
  0
VERTEX
  8
51
 10
220.7962
 20
-208.3398
 30
0.0000
  0
VERTEX
  8
51
 10
220.7962
 20
-207.5263
 30
0.0000
 42
1.0000
  0
SEQEND
  8
0
  0
POLYLINE
  8
51
 66
1
 10
0.0000
 20
0.0000
 30
0.0000
 40
0.0000
 41
0.0000
 70
1
  0
VERTEX
  8
51
 10
220.7540
 20
-208.4080
 30
0.0000
  0
VERTEX
  8
51
 10
221.2964
 20
-208.1368
 30
0.0000
 42
1.0000
  0
VERTEX
  8
51
 10
221.2282
 20
-208.0005
 30
0.0000
  0
VERTEX
  8
51
 10
220.6859
 20
-208.2717
 30
0.0000
 42
1.0000
  0
SEQEND
  8
0
  0
POLYLINE
  8
51
 66
1
 10
0.0000
 20
0.0000
 30
0.0000
 40
0.0000
 41
0.0000
 70
1
  0
VERTEX
  8
51
 10
221.2623
 20
-208.1448
 30
0.0000
  0
VERTEX
  8
51
 10
221.5335
 20
-208.1448
 30
0.0000
 42
1.0000
  0
VERTEX
  8
51
 10
221.5335
 20
-207.9924
 30
0.0000
  0
VERTEX
  8
51
 10
221.2623
 20
-207.9924
 30
0.0000
 42
1.0000
  0
SEQEND
  8
0
  0
POLYLINE
  8
51
 66
1
 10
0.0000
 20
0.0000
 30
0.0000
 40
0.0000
 41
0.0000
 70
1
  0
VERTEX
  8
51
 10
221.4796
 20
-208.1225
 30
0.0000
  0
VERTEX
  8
51
 10
221.7507
 20
-208.3937
 30
0.0000
 42
1.0000
  0
VERTEX
  8
51
 10
221.8585
 20
-208.2859
 30
0.0000
  0
VERTEX
  8
51
 10
221.5873
 20
-208.0148
 30
0.0000
 42
1.0000
  0
SEQEND
  8
0
  0
POLYLINE
  8
51
 66
1
 10
0.0000
 20
0.0000
 30
0.0000
 40
0.0000
 41
0.0000
 70
1
  0
VERTEX
  8
51
 10
221.7284
 20
-208.3398
 30
0.0000
  0
VERTEX
  8
51
 10
221.7284
 20
-208.8821
 30
0.0000
 42
1.0000
  0
VERTEX
  8
51
 10
221.8808
 20
-208.8821
 30
0.0000
  0
VERTEX
  8
51
 10
221.8808
 20
-208.3398
 30
0.0000
 42
1.0000
  0
SEQEND
  8
0
  0
POLYLINE
  8
51
 66
1
 10
0.0000
 20
0.0000
 30
0.0000
 40
0.0000
 41
0.0000
 70
1
  0
VERTEX
  8
51
 10
221.7507
 20
-208.8283
 30
0.0000
  0
VERTEX
  8
51
 10
221.4796
 20
-209.0994
 30
0.0000
 42
1.0000
  0
VERTEX
  8
51
 10
221.5873
 20
-209.2072
 30
0.0000
  0
VERTEX
  8
51
 10
221.8585
 20
-208.9360
 30
0.0000
 42
1.0000
  0
SEQEND
  8
0
  0
POLYLINE
  8
51
 66
1
 10
0.0000
 20
0.0000
 30
0.0000
 40
0.0000
 41
0.0000
 70
1
  0
VERTEX
  8
51
 10
221.5335
 20
-209.0771
 30
0.0000
  0
VERTEX
  8
51
 10
220.9911
 20
-209.0771
 30
0.0000
 42
1.0000
  0
VERTEX
  8
51
 10
220.9911
 20
-209.2295
 30
0.0000
  0
VERTEX
  8
51
 10
221.5335
 20
-209.2295
 30
0.0000
 42
1.0000
  0
SEQEND
  8
0
  0
POLYLINE
  8
51
 66
1
 10
0.0000
 20
0.0000
 30
0.0000
 40
0.0000
 41
0.0000
 70
1
  0
VERTEX
  8
51
 10
221.0450
 20
-209.0994
 30
0.0000
  0
VERTEX
  8
51
 10
220.7738
 20
-208.8283
 30
0.0000
 42
1.0000
  0
VERTEX
  8
51
 10
220.6661
 20
-208.9360
 30
0.0000
  0
VERTEX
  8
51
 10
220.9372
 20
-209.2072
 30
0.0000
 42
1.0000
  0
SEQEND
  8
0
  0
POLYLINE
  8
51
 66
1
 10
0.0000
 20
0.0000
 30
0.0000
 40
0.0000
 41
0.0000
 70
1
  0
VERTEX
  8
51
 10
222.4333
 20
-209.1533
 30
0.0000
  0
VERTEX
  8
51
 10
222.4333
 20
-208.8821
 30
0.0000
 42
1.0000
  0
VERTEX
  8
51
 10
222.2809
 20
-208.8821
 30
0.0000
  0
VERTEX
  8
51
 10
222.2809
 20
-209.1533
 30
0.0000
 42
1.0000
  0
SEQEND
  8
0
  0
POLYLINE
  8
51
 66
1
 10
0.0000
 20
0.0000
 30
0.0000
 40
0.0000
 41
0.0000
 70
1
  0
VERTEX
  8
51
 10
222.3571
 20
-208.9583
 30
0.0000
  0
VERTEX
  8
51
 10
222.6283
 20
-208.9583
 30
0.0000
 42
1.0000
  0
VERTEX
  8
51
 10
222.6283
 20
-208.8059
 30
0.0000
  0
VERTEX
  8
51
 10
222.3571
 20
-208.8059
 30
0.0000
 42
1.0000
  0
SEQEND
  8
0
  0
POLYLINE
  8
51
 66
1
 10
0.0000
 20
0.0000
 30
0.0000
 40
0.0000
 41
0.0000
 70
1
  0
VERTEX
  8
51
 10
222.5521
 20
-208.8821
 30
0.0000
  0
VERTEX
  8
51
 10
222.5521
 20
-209.1533
 30
0.0000
 42
1.0000
  0
VERTEX
  8
51
 10
222.7045
 20
-209.1533
 30
0.0000
  0
VERTEX
  8
51
 10
222.7045
 20
-208.8821
 30
0.0000
 42
1.0000
  0
SEQEND
  8
0
  0
POLYLINE
  8
51
 66
1
 10
0.0000
 20
0.0000
 30
0.0000
 40
0.0000
 41
0.0000
 70
1
  0
VERTEX
  8
51
 10
222.6283
 20
-209.0771
 30
0.0000
  0
VERTEX
  8
51
 10
222.3571
 20
-209.0771
 30
0.0000
 42
1.0000
  0
VERTEX
  8
51
 10
222.3571
 20
-209.2295
 30
0.0000
  0
VERTEX
  8
51
 10
222.6283
 20
-209.2295
 30
0.0000
 42
1.0000
  0
SEQEND
  8
0
  0
POLYLINE
  8
51
 66
1
 10
0.0000
 20
0.0000
 30
0.0000
 40
0.0000
 41
0.0000
 70
1
  0
VERTEX
  8
51
 10
224.2604
 20
-209.0771
 30
0.0000
  0
VERTEX
  8
51
 10
223.1757
 20
-209.0771
 30
0.0000
 42
1.0000
  0
VERTEX
  8
51
 10
223.1757
 20
-209.2295
 30
0.0000
  0
VERTEX
  8
51
 10
224.2604
 20
-209.2295
 30
0.0000
 42
1.0000
  0
SEQEND
  8
0
  0
POLYLINE
  8
51
 66
1
 10
0.0000
 20
0.0000
 30
0.0000
 40
0.0000
 41
0.0000
 70
1
  0
VERTEX
  8
51
 10
223.2296
 20
-209.2072
 30
0.0000
  0
VERTEX
  8
51
 10
224.3142
 20
-208.1225
 30
0.0000
 42
1.0000
  0
VERTEX
  8
51
 10
224.2065
 20
-208.0148
 30
0.0000
  0
VERTEX
  8
51
 10
223.1218
 20
-209.0994
 30
0.0000
 42
1.0000
  0
SEQEND
  8
0
  0
POLYLINE
  8
51
 66
1
 10
0.0000
 20
0.0000
 30
0.0000
 40
0.0000
 41
0.0000
 70
1
  0
VERTEX
  8
51
 10
224.3366
 20
-208.0686
 30
0.0000
  0
VERTEX
  8
51
 10
224.3366
 20
-207.7975
 30
0.0000
 42
1.0000
  0
VERTEX
  8
51
 10
224.1842
 20
-207.7975
 30
0.0000
  0
VERTEX
  8
51
 10
224.1842
 20
-208.0686
 30
0.0000
 42
1.0000
  0
SEQEND
  8
0
  0
POLYLINE
  8
51
 66
1
 10
0.0000
 20
0.0000
 30
0.0000
 40
0.0000
 41
0.0000
 70
1
  0
VERTEX
  8
51
 10
224.3142
 20
-207.7436
 30
0.0000
  0
VERTEX
  8
51
 10
224.0431
 20
-207.4724
 30
0.0000
 42
1.0000
  0
VERTEX
  8
51
 10
223.9353
 20
-207.5802
 30
0.0000
  0
VERTEX
  8
51
 10
224.2065
 20
-207.8514
 30
0.0000
 42
1.0000
  0
SEQEND
  8
0
  0
POLYLINE
  8
51
 66
1
 10
0.0000
 20
0.0000
 30
0.0000
 40
0.0000
 41
0.0000
 70
1
  0
VERTEX
  8
51
 10
223.9892
 20
-207.4501
 30
0.0000
  0
VERTEX
  8
51
 10
223.4469
 20
-207.4501
 30
0.0000
 42
1.0000
  0
VERTEX
  8
51
 10
223.4469
 20
-207.6025
 30
0.0000
  0
VERTEX
  8
51
 10
223.9892
 20
-207.6025
 30
0.0000
 42
1.0000
  0
SEQEND
  8
0
  0
POLYLINE
  8
51
 66
1
 10
0.0000
 20
0.0000
 30
0.0000
 40
0.0000
 41
0.0000
 70
1
  0
VERTEX
  8
51
 10
223.3930
 20
-207.4724
 30
0.0000
  0
VERTEX
  8
51
 10
223.1218
 20
-207.7436
 30
0.0000
 42
1.0000
  0
VERTEX
  8
51
 10
223.2296
 20
-207.8514
 30
0.0000
  0
VERTEX
  8
51
 10
223.5007
 20
-207.5802
 30
0.0000
 42
1.0000
  0
SEQEND
  8
0
  0
CIRCLE
  8
20
 10
221.4880
 20
-181.6100
 30
0.0000
 40
22.8000
  0
CIRCLE
  8
20
 10
221.4880
 20
-181.6100
 30
0.0000
 40
22.8000
  0
CIRCLE
  8
20
 10
221.4880
 20
-181.6100
 30
0.0000
 40
12.7000
  0
CIRCLE
  8
20
 10
221.4880
 20
-181.6100
 30
0.0000
 40
12.7000
  0
CIRCLE
  8
20
 10
221.4880
 20
-181.6100
 30
0.0000
 40
7.5999
  0
CIRCLE
  8
20
 10
221.4880
 20
-181.6100
 30
0.0000
 40
7.6001
  0
CIRCLE
  8
20
 10
221.4880
 20
-181.6100
 30
0.0000
 40
8.5999
  0
CIRCLE
  8
20
 10
221.4880
 20
-181.6100
 30
0.0000
 40
8.6001
  0
CIRCLE
  8
20
 10
221.4880
 20
-181.6100
 30
0.0000
 40
13.7000
  0
CIRCLE
  8
20
 10
221.4880
 20
-181.6100
 30
0.0000
 40
13.7000
  0
CIRCLE
  8
20
 10
221.4880
 20
-181.6100
 30
0.0000
 40
17.7000
  0
CIRCLE
  8
20
 10
221.4880
 20
-181.6100
 30
0.0000
 40
17.7000
  0
CIRCLE
  8
20
 10
221.4880
 20
-181.6100
 30
0.0000
 40
18.7000
  0
CIRCLE
  8
20
 10
221.4880
 20
-181.6100
 30
0.0000
 40
18.7000
  0
CIRCLE
  8
51
 10
218.1606
 20
-161.1122
 30
0.0000
 40
0.1052
  0
CIRCLE
  8
51
 10
218.1606
 20
-161.1122
 30
0.0000
 40
0.6132
  0
CIRCLE
  8
51
 10
222.6310
 20
-160.8582
 30
0.0000
 40
0.1052
  0
CIRCLE
  8
51
 10
222.6310
 20
-160.8582
 30
0.0000
 40
0.6132
  0
CIRCLE
  8
51
 10
226.4664
 20
-161.4932
 30
0.0000
 40
0.1052
  0
CIRCLE
  8
51
 10
226.4664
 20
-161.4932
 30
0.0000
 40
0.6132
  0
CIRCLE
  8
51
 10
230.8606
 20
-163.0680
 30
0.0000
 40
0.1052
  0
CIRCLE
  8
51
 10
230.8606
 20
-163.0680
 30
0.0000
 40
0.6132
  0
CIRCLE
  8
51
 10
217.8812
 20
-166.3192
 30
0.0000
 40
0.1052
  0
CIRCLE
  8
51
 10
217.8812
 20
-166.3192
 30
0.0000
 40
0.6132
  0
CIRCLE
  8
51
 10
222.5294
 20
-165.9382
 30
0.0000
 40
0.1052
  0
CIRCLE
  8
51
 10
222.5294
 20
-165.9382
 30
0.0000
 40
0.6132
  0
CIRCLE
  8
51
 10
226.6696
 20
-166.7764
 30
0.0000
 40
0.1052
  0
CIRCLE
  8
51
 10
226.6696
 20
-166.7764
 30
0.0000
 40
0.6132
  0
CIRCLE
  8
51
 10
218.2368
 20
-171.5262
 30
0.0000
 40
0.1052
  0
CIRCLE
  8
51
 10
218.2368
 20
-171.5262
 30
0.0000
 40
0.6132
  0
CIRCLE
  8
51
 10
222.4532
 20
-171.0182
 30
0.0000
 40
0.1052
  0
CIRCLE
  8
51
 10
222.4532
 20
-171.0182
 30
0.0000
 40
0.6132
  0
CIRCLE
  8
51
 10
226.2886
 20
-172.1612
 30
0.0000
 40
0.1052
  0
CIRCLE
  8
51
 10
226.2886
 20
-172.1612
 30
0.0000
 40
0.6132
  0
CIRCLE
  8
51
 10
228.9048
 20
-174.0154
 30
0.0000
 40
0.1052
  0
CIRCLE
  8
51
 10
228.9048
 20
-174.0154
 30
0.0000
 40
0.6132
  0
CIRCLE
  8
51
 10
219.6084
 20
-177.6476
 30
0.0000
 40
0.1052
  0
CIRCLE
  8
51
 10
219.6084
 20
-177.6476
 30
0.0000
 40
0.6132
  0
CIRCLE
  8
51
 10
221.6150
 20
-176.9872
 30
0.0000
 40
0.1052
  0
CIRCLE
  8
51
 10
221.6150
 20
-176.9872
 30
0.0000
 40
0.6132
  0
CIRCLE
  8
51
 10
223.8248
 20
-177.6984
 30
0.0000
 40
0.1052
  0
CIRCLE
  8
51
 10
223.8248
 20
-177.6984
 30
0.0000
 40
0.6132
  0
CIRCLE
  8
51
 10
225.3996
 20
-179.0954
 30
0.0000
 40
0.1052
  0
CIRCLE
  8
51
 10
225.3996
 20
-179.0954
 30
0.0000
 40
0.6132
  0
POLYLINE
  8
21
 66
1
 10
0.0000
 20
0.0000
 30
0.0000
 40
0.0000
 41
0.0000
 70
1
  0
VERTEX
  8
21
 10
229.2346
 20
-162.5370
 30
0.0000
  0
VERTEX
  8
21
 10
229.4249
 20
-162.1213
 30
0.0000
 42
1.0000
  0
VERTEX
  8
21
 10
229.3094
 20
-162.0684
 30
0.0000
  0
VERTEX
  8
21
 10
229.1191
 20
-162.4842
 30
0.0000
 42
1.0000
  0
SEQEND
  8
0
  0
POLYLINE
  8
21
 66
1
 10
0.0000
 20
0.0000
 30
0.0000
 40
0.0000
 41
0.0000
 70
1
  0
VERTEX
  8
21
 10
229.7713
 20
-162.2799
 30
0.0000
  0
VERTEX
  8
21
 10
229.5810
 20
-162.6956
 30
0.0000
 42
1.0000
  0
VERTEX
  8
21
 10
229.6965
 20
-162.7485
 30
0.0000
  0
VERTEX
  8
21
 10
229.8868
 20
-162.3328
 30
0.0000
 42
1.0000
  0
SEQEND
  8
0
  0
POLYLINE
  8
21
 66
1
 10
0.0000
 20
0.0000
 30
0.0000
 40
0.0000
 41
0.0000
 70
1
  0
VERTEX
  8
21
 10
229.3407
 20
-162.1526
 30
0.0000
  0
VERTEX
  8
21
 10
229.8026
 20
-162.3641
 30
0.0000
 42
1.0000
  0
VERTEX
  8
21
 10
229.8555
 20
-162.2486
 30
0.0000
  0
VERTEX
  8
21
 10
229.3936
 20
-162.0371
 30
0.0000
 42
1.0000
  0
SEQEND
  8
0
  0
POLYLINE
  8
21
 66
1
 10
0.0000
 20
0.0000
 30
0.0000
 40
0.0000
 41
0.0000
 70
1
  0
VERTEX
  8
21
 10
229.1504
 20
-162.5683
 30
0.0000
  0
VERTEX
  8
21
 10
229.6123
 20
-162.7798
 30
0.0000
 42
1.0000
  0
VERTEX
  8
21
 10
229.6652
 20
-162.6643
 30
0.0000
  0
VERTEX
  8
21
 10
229.2033
 20
-162.4528
 30
0.0000
 42
1.0000
  0
SEQEND
  8
0
  0
INSERT
  8
51
  2
RECT
 10
229.3126
 20
-162.8242
 30
0.0000
 41
0.3556
 42
0.8128
 43
1.0000
 50
65.4000
  0
INSERT
  8
51
  2
RECT
 10
229.6933
 20
-161.9928
 30
0.0000
 41
0.3556
 42
0.8128
 43
1.0000
 50
65.4000
  0
POLYLINE
  8
21
 66
1
 10
0.0000
 20
0.0000
 30
0.0000
 40
0.0000
 41
0.0000
 70
1
  0
VERTEX
  8
21
 10
202.4507
 20
-173.7448
 30
0.0000
  0
VERTEX
  8
21
 10
202.0274
 20
-173.5720
 30
0.0000
 42
1.0000
  0
VERTEX
  8
21
 10
201.9794
 20
-173.6896
 30
0.0000
  0
VERTEX
  8
21
 10
202.4027
 20
-173.8623
 30
0.0000
 42
1.0000
  0
SEQEND
  8
0
  0
POLYLINE
  8
21
 66
1
 10
0.0000
 20
0.0000
 30
0.0000
 40
0.0000
 41
0.0000
 70
1
  0
VERTEX
  8
21
 10
202.1713
 20
-173.2192
 30
0.0000
  0
VERTEX
  8
21
 10
202.5946
 20
-173.3920
 30
0.0000
 42
1.0000
  0
VERTEX
  8
21
 10
202.6426
 20
-173.2744
 30
0.0000
  0
VERTEX
  8
21
 10
202.2193
 20
-173.1017
 30
0.0000
 42
1.0000
  0
SEQEND
  8
0
  0
POLYLINE
  8
21
 66
1
 10
0.0000
 20
0.0000
 30
0.0000
 40
0.0000
 41
0.0000
 70
1
  0
VERTEX
  8
21
 10
202.0622
 20
-173.6548
 30
0.0000
  0
VERTEX
  8
21
 10
202.2541
 20
-173.1844
 30
0.0000
 42
1.0000
  0
VERTEX
  8
21
 10
202.1365
 20
-173.1365
 30
0.0000
  0
VERTEX
  8
21
 10
201.9446
 20
-173.6068
 30
0.0000
 42
1.0000
  0
SEQEND
  8
0
  0
POLYLINE
  8
21
 66
1
 10
0.0000
 20
0.0000
 30
0.0000
 40
0.0000
 41
0.0000
 70
1
  0
VERTEX
  8
21
 10
202.4855
 20
-173.8275
 30
0.0000
  0
VERTEX
  8
21
 10
202.6774
 20
-173.3572
 30
0.0000
 42
1.0000
  0
VERTEX
  8
21
 10
202.5598
 20
-173.3092
 30
0.0000
  0
VERTEX
  8
21
 10
202.3679
 20
-173.7796
 30
0.0000
 42
1.0000
  0
SEQEND
  8
0
  0
INSERT
  8
51
  2
RECT
 10
202.7343
 20
-173.6547
 30
0.0000
 41
0.3556
 42
0.8128
 43
1.0000
 50
157.8000
  0
INSERT
  8
51
  2
RECT
 10
201.8877
 20
-173.3093
 30
0.0000
 41
0.3556
 42
0.8128
 43
1.0000
 50
157.8000
  0
POLYLINE
  8
21
 66
1
 10
0.0000
 20
0.0000
 30
0.0000
 40
0.0000
 41
0.0000
 70
1
  0
VERTEX
  8
21
 10
240.5311
 20
-189.4194
 30
0.0000
  0
VERTEX
  8
21
 10
240.9498
 20
-189.6032
 30
0.0000
 42
1.0000
  0
VERTEX
  8
21
 10
241.0008
 20
-189.4869
 30
0.0000
  0
VERTEX
  8
21
 10
240.5822
 20
-189.3031
 30
0.0000
 42
1.0000
  0
SEQEND
  8
0
  0
POLYLINE
  8
21
 66
1
 10
0.0000
 20
0.0000
 30
0.0000
 40
0.0000
 41
0.0000
 70
1
  0
VERTEX
  8
21
 10
240.7966
 20
-189.9521
 30
0.0000
  0
VERTEX
  8
21
 10
240.3780
 20
-189.7683
 30
0.0000
 42
1.0000
  0
VERTEX
  8
21
 10
240.3269
 20
-189.8846
 30
0.0000
  0
VERTEX
  8
21
 10
240.7456
 20
-190.0684
 30
0.0000
 42
1.0000
  0
SEQEND
  8
0
  0
POLYLINE
  8
21
 66
1
 10
0.0000
 20
0.0000
 30
0.0000
 40
0.0000
 41
0.0000
 70
1
  0
VERTEX
  8
21
 10
240.9171
 20
-189.5195
 30
0.0000
  0
VERTEX
  8
21
 10
240.7130
 20
-189.9847
 30
0.0000
 42
1.0000
  0
VERTEX
  8
21
 10
240.8292
 20
-190.0357
 30
0.0000
  0
VERTEX
  8
21
 10
241.0334
 20
-189.5706
 30
0.0000
 42
1.0000
  0
SEQEND
  8
0
  0
POLYLINE
  8
21
 66
1
 10
0.0000
 20
0.0000
 30
0.0000
 40
0.0000
 41
0.0000
 70
1
  0
VERTEX
  8
21
 10
240.4985
 20
-189.3358
 30
0.0000
  0
VERTEX
  8
21
 10
240.2943
 20
-189.8009
 30
0.0000
 42
1.0000
  0
VERTEX
  8
21
 10
240.4106
 20
-189.8520
 30
0.0000
  0
VERTEX
  8
21
 10
240.6148
 20
-189.3868
 30
0.0000
 42
1.0000
  0
SEQEND
  8
0
  0
INSERT
  8
51
  2
RECT
 10
240.2452
 20
-189.5020
 30
0.0000
 41
0.3556
 42
0.8128
 43
1.0000
 50
336.3000
  0
INSERT
  8
51
  2
RECT
 10
241.0825
 20
-189.8695
 30
0.0000
 41
0.3556
 42
0.8128
 43
1.0000
 50
336.3000
  0
POLYLINE
  8
21
 66
1
 10
0.0000
 20
0.0000
 30
0.0000
 40
0.0000
 41
0.0000
 70
1
  0
VERTEX
  8
21
 10
213.8935
 20
-200.7072
 30
0.0000
  0
VERTEX
  8
21
 10
213.7274
 20
-201.1332
 30
0.0000
 42
1.0000
  0
VERTEX
  8
21
 10
213.8458
 20
-201.1794
 30
0.0000
  0
VERTEX
  8
21
 10
214.0118
 20
-200.7534
 30
0.0000
 42
1.0000
  0
SEQEND
  8
0
  0
POLYLINE
  8
21
 66
1
 10
0.0000
 20
0.0000
 30
0.0000
 40
0.0000
 41
0.0000
 70
1
  0
VERTEX
  8
21
 10
213.3725
 20
-200.9948
 30
0.0000
  0
VERTEX
  8
21
 10
213.5385
 20
-200.5689
 30
0.0000
 42
1.0000
  0
VERTEX
  8
21
 10
213.4202
 20
-200.5227
 30
0.0000
  0
VERTEX
  8
21
 10
213.2541
 20
-200.9487
 30
0.0000
 42
1.0000
  0
SEQEND
  8
0
  0
POLYLINE
  8
21
 66
1
 10
0.0000
 20
0.0000
 30
0.0000
 40
0.0000
 41
0.0000
 70
1
  0
VERTEX
  8
21
 10
213.8097
 20
-201.0971
 30
0.0000
  0
VERTEX
  8
21
 10
213.3364
 20
-200.9126
 30
0.0000
 42
1.0000
  0
VERTEX
  8
21
 10
213.2902
 20
-201.0309
 30
0.0000
  0
VERTEX
  8
21
 10
213.7635
 20
-201.2154
 30
0.0000
 42
1.0000
  0
SEQEND
  8
0
  0
POLYLINE
  8
21
 66
1
 10
0.0000
 20
0.0000
 30
0.0000
 40
0.0000
 41
0.0000
 70
1
  0
VERTEX
  8
21
 10
213.9757
 20
-200.6712
 30
0.0000
  0
VERTEX
  8
21
 10
213.5024
 20
-200.4866
 30
0.0000
 42
1.0000
  0
VERTEX
  8
21
 10
213.4563
 20
-200.6049
 30
0.0000
  0
VERTEX
  8
21
 10
213.9296
 20
-200.7895
 30
0.0000
 42
1.0000
  0
SEQEND
  8
0
  0
INSERT
  8
51
  2
RECT
 10
213.7991
 20
-200.4251
 30
0.0000
 41
0.3556
 42
0.8128
 43
1.0000
 50
248.7000
  0
INSERT
  8
51
  2
RECT
 10
213.4669
 20
-201.2770
 30
0.0000
 41
0.3556
 42
0.8128
 43
1.0000
 50
248.7000
  0
POLYLINE
  8
21
 66
1
 10
0.0000
 20
0.0000
 30
0.0000
 40
0.0000
 41
0.0000
 70
1
  0
VERTEX
  8
21
 10
210.7966
 20
-184.5413
 30
0.0000
  0
VERTEX
  8
21
 10
210.3394
 20
-184.5461
 30
0.0000
 42
1.0000
  0
VERTEX
  8
21
 10
210.3407
 20
-184.6731
 30
0.0000
  0
VERTEX
  8
21
 10
210.7979
 20
-184.6683
 30
0.0000
 42
1.0000
  0
SEQEND
  8
0
  0
POLYLINE
  8
21
 66
1
 10
0.0000
 20
0.0000
 30
0.0000
 40
0.0000
 41
0.0000
 70
1
  0
VERTEX
  8
21
 10
210.3354
 20
-184.1651
 30
0.0000
  0
VERTEX
  8
21
 10
210.7926
 20
-184.1603
 30
0.0000
 42
1.0000
  0
VERTEX
  8
21
 10
210.7913
 20
-184.0333
 30
0.0000
  0
VERTEX
  8
21
 10
210.3341
 20
-184.0381
 30
0.0000
 42
1.0000
  0
SEQEND
  8
0
  0
POLYLINE
  8
21
 66
1
 10
0.0000
 20
0.0000
 30
0.0000
 40
0.0000
 41
0.0000
 70
1
  0
VERTEX
  8
21
 10
210.4036
 20
-184.6089
 30
0.0000
  0
VERTEX
  8
21
 10
210.3982
 20
-184.1009
 30
0.0000
 42
1.0000
  0
VERTEX
  8
21
 10
210.2713
 20
-184.1023
 30
0.0000
  0
VERTEX
  8
21
 10
210.2766
 20
-184.6102
 30
0.0000
 42
1.0000
  0
SEQEND
  8
0
  0
POLYLINE
  8
21
 66
1
 10
0.0000
 20
0.0000
 30
0.0000
 40
0.0000
 41
0.0000
 70
1
  0
VERTEX
  8
21
 10
210.8607
 20
-184.6041
 30
0.0000
  0
VERTEX
  8
21
 10
210.8554
 20
-184.0962
 30
0.0000
 42
1.0000
  0
VERTEX
  8
21
 10
210.7284
 20
-184.0975
 30
0.0000
  0
VERTEX
  8
21
 10
210.7338
 20
-184.6055
 30
0.0000
 42
1.0000
  0
SEQEND
  8
0
  0
INSERT
  8
51
  2
RECT
 10
211.0232
 20
-184.3484
 30
0.0000
 41
0.3556
 42
0.8128
 43
1.0000
 50
180.6000
  0
INSERT
  8
51
  2
RECT
 10
210.1088
 20
-184.3580
 30
0.0000
 41
0.3556
 42
0.8128
 43
1.0000
 50
180.6000
  0
POLYLINE
  8
21
 66
1
 10
0.0000
 20
0.0000
 30
0.0000
 40
0.0000
 41
0.0000
 70
1
  0
VERTEX
  8
21
 10
218.4019
 20
-181.8894
 30
0.0000
  0
VERTEX
  8
21
 10
218.4019
 20
-181.4322
 30
0.0000
 42
1.0000
  0
VERTEX
  8
21
 10
218.2749
 20
-181.4322
 30
0.0000
  0
VERTEX
  8
21
 10
218.2749
 20
-181.8894
 30
0.0000
 42
1.0000
  0
SEQEND
  8
0
  0
POLYLINE
  8
21
 66
1
 10
0.0000
 20
0.0000
 30
0.0000
 40
0.0000
 41
0.0000
 70
1
  0
VERTEX
  8
21
 10
218.7829
 20
-181.4322
 30
0.0000
  0
VERTEX
  8
21
 10
218.7829
 20
-181.8894
 30
0.0000
 42
1.0000
  0
VERTEX
  8
21
 10
218.9099
 20
-181.8894
 30
0.0000
  0
VERTEX
  8
21
 10
218.9099
 20
-181.4322
 30
0.0000
 42
1.0000
  0
SEQEND
  8
0
  0
POLYLINE
  8
21
 66
1
 10
0.0000
 20
0.0000
 30
0.0000
 40
0.0000
 41
0.0000
 70
1
  0
VERTEX
  8
21
 10
218.3384
 20
-181.4957
 30
0.0000
  0
VERTEX
  8
21
 10
218.8464
 20
-181.4957
 30
0.0000
 42
1.0000
  0
VERTEX
  8
21
 10
218.8464
 20
-181.3687
 30
0.0000
  0
VERTEX
  8
21
 10
218.3384
 20
-181.3687
 30
0.0000
 42
1.0000
  0
SEQEND
  8
0
  0
POLYLINE
  8
21
 66
1
 10
0.0000
 20
0.0000
 30
0.0000
 40
0.0000
 41
0.0000
 70
1
  0
VERTEX
  8
21
 10
218.3384
 20
-181.9529
 30
0.0000
  0
VERTEX
  8
21
 10
218.8464
 20
-181.9529
 30
0.0000
 42
1.0000
  0
VERTEX
  8
21
 10
218.8464
 20
-181.8259
 30
0.0000
  0
VERTEX
  8
21
 10
218.3384
 20
-181.8259
 30
0.0000
 42
1.0000
  0
SEQEND
  8
0
  0
INSERT
  8
51
  2
RECT
 10
218.5924
 20
-182.1180
 30
0.0000
 41
0.3556
 42
0.8128
 43
1.0000
 50
90.0000
  0
INSERT
  8
51
  2
RECT
 10
218.5924
 20
-181.2036
 30
0.0000
 41
0.3556
 42
0.8128
 43
1.0000
 50
90.0000
  0
POLYLINE
  8
21
 66
1
 10
0.0000
 20
0.0000
 30
0.0000
 40
0.0000
 41
0.0000
 70
1
  0
VERTEX
  8
21
 10
224.6757
 20
-181.5084
 30
0.0000
  0
VERTEX
  8
21
 10
224.6757
 20
-181.9656
 30
0.0000
 42
1.0000
  0
VERTEX
  8
21
 10
224.8027
 20
-181.9656
 30
0.0000
  0
VERTEX
  8
21
 10
224.8027
 20
-181.5084
 30
0.0000
 42
1.0000
  0
SEQEND
  8
0
  0
POLYLINE
  8
21
 66
1
 10
0.0000
 20
0.0000
 30
0.0000
 40
0.0000
 41
0.0000
 70
1
  0
VERTEX
  8
21
 10
224.2947
 20
-181.9656
 30
0.0000
  0
VERTEX
  8
21
 10
224.2947
 20
-181.5084
 30
0.0000
 42
1.0000
  0
VERTEX
  8
21
 10
224.1677
 20
-181.5084
 30
0.0000
  0
VERTEX
  8
21
 10
224.1677
 20
-181.9656
 30
0.0000
 42
1.0000
  0
SEQEND
  8
0
  0
POLYLINE
  8
21
 66
1
 10
0.0000
 20
0.0000
 30
0.0000
 40
0.0000
 41
0.0000
 70
1
  0
VERTEX
  8
21
 10
224.7392
 20
-181.9021
 30
0.0000
  0
VERTEX
  8
21
 10
224.2312
 20
-181.9021
 30
0.0000
 42
1.0000
  0
VERTEX
  8
21
 10
224.2312
 20
-182.0291
 30
0.0000
  0
VERTEX
  8
21
 10
224.7392
 20
-182.0291
 30
0.0000
 42
1.0000
  0
SEQEND
  8
0
  0
POLYLINE
  8
21
 66
1
 10
0.0000
 20
0.0000
 30
0.0000
 40
0.0000
 41
0.0000
 70
1
  0
VERTEX
  8
21
 10
224.7392
 20
-181.4449
 30
0.0000
  0
VERTEX
  8
21
 10
224.2312
 20
-181.4449
 30
0.0000
 42
1.0000
  0
VERTEX
  8
21
 10
224.2312
 20
-181.5719
 30
0.0000
  0
VERTEX
  8
21
 10
224.7392
 20
-181.5719
 30
0.0000
 42
1.0000
  0
SEQEND
  8
0
  0
INSERT
  8
51
  2
RECT
 10
224.4852
 20
-181.2798
 30
0.0000
 41
0.3556
 42
0.8128
 43
1.0000
 50
270.0000
  0
INSERT
  8
51
  2
RECT
 10
224.4852
 20
-182.1942
 30
0.0000
 41
0.3556
 42
0.8128
 43
1.0000
 50
270.0000
  0
POLYLINE
  8
21
 66
1
 10
0.0000
 20
0.0000
 30
0.0000
 40
0.0000
 41
0.0000
 70
1
  0
VERTEX
  8
21
 10
229.3461
 20
-173.7754
 30
0.0000
  0
VERTEX
  8
21
 10
229.7309
 20
-173.5284
 30
0.0000
 42
1.0000
  0
VERTEX
  8
21
 10
229.6622
 20
-173.4215
 30
0.0000
  0
VERTEX
  8
21
 10
229.2775
 20
-173.6685
 30
0.0000
 42
1.0000
  0
SEQEND
  8
0
  0
POLYLINE
  8
21
 66
1
 10
0.0000
 20
0.0000
 30
0.0000
 40
0.0000
 41
0.0000
 70
1
  0
VERTEX
  8
21
 10
229.9367
 20
-173.8490
 30
0.0000
  0
VERTEX
  8
21
 10
229.5519
 20
-174.0960
 30
0.0000
 42
1.0000
  0
VERTEX
  8
21
 10
229.6206
 20
-174.2029
 30
0.0000
  0
VERTEX
  8
21
 10
230.0053
 20
-173.9559
 30
0.0000
 42
1.0000
  0
SEQEND
  8
0
  0
POLYLINE
  8
21
 66
1
 10
0.0000
 20
0.0000
 30
0.0000
 40
0.0000
 41
0.0000
 70
1
  0
VERTEX
  8
21
 10
229.6431
 20
-173.5093
 30
0.0000
  0
VERTEX
  8
21
 10
229.9176
 20
-173.9367
 30
0.0000
 42
1.0000
  0
VERTEX
  8
21
 10
230.0244
 20
-173.8681
 30
0.0000
  0
VERTEX
  8
21
 10
229.7500
 20
-173.4407
 30
0.0000
 42
1.0000
  0
SEQEND
  8
0
  0
POLYLINE
  8
21
 66
1
 10
0.0000
 20
0.0000
 30
0.0000
 40
0.0000
 41
0.0000
 70
1
  0
VERTEX
  8
21
 10
229.2584
 20
-173.7563
 30
0.0000
  0
VERTEX
  8
21
 10
229.5328
 20
-174.1837
 30
0.0000
 42
1.0000
  0
VERTEX
  8
21
 10
229.6397
 20
-174.1151
 30
0.0000
  0
VERTEX
  8
21
 10
229.3652
 20
-173.6876
 30
0.0000
 42
1.0000
  0
SEQEND
  8
0
  0
INSERT
  8
51
  2
RECT
 10
229.2567
 20
-174.0592
 30
0.0000
 41
0.3556
 42
0.8128
 43
1.0000
 50
32.7000
  0
INSERT
  8
51
  2
RECT
 10
230.0261
 20
-173.5652
 30
0.0000
 41
0.3556
 42
0.8128
 43
1.0000
 50
32.7000
  0
POLYLINE
  8
21
 66
1
 10
0.0000
 20
0.0000
 30
0.0000
 40
0.0000
 41
0.0000
 70
1
  0
VERTEX
  8
21
 10
229.3355
 20
-189.3684
 30
0.0000
  0
VERTEX
  8
21
 10
229.5654
 20
-189.7635
 30
0.0000
 42
1.0000
  0
VERTEX
  8
21
 10
229.6752
 20
-189.6997
 30
0.0000
  0
VERTEX
  8
21
 10
229.4452
 20
-189.3045
 30
0.0000
 42
1.0000
  0
SEQEND
  8
0
  0
POLYLINE
  8
21
 66
1
 10
0.0000
 20
0.0000
 30
0.0000
 40
0.0000
 41
0.0000
 70
1
  0
VERTEX
  8
21
 10
229.2361
 20
-189.9552
 30
0.0000
  0
VERTEX
  8
21
 10
229.0062
 20
-189.5601
 30
0.0000
 42
1.0000
  0
VERTEX
  8
21
 10
228.8964
 20
-189.6239
 30
0.0000
  0
VERTEX
  8
21
 10
229.1264
 20
-190.0191
 30
0.0000
 42
1.0000
  0
SEQEND
  8
0
  0
POLYLINE
  8
21
 66
1
 10
0.0000
 20
0.0000
 30
0.0000
 40
0.0000
 41
0.0000
 70
1
  0
VERTEX
  8
21
 10
229.5884
 20
-189.6767
 30
0.0000
  0
VERTEX
  8
21
 10
229.1493
 20
-189.9323
 30
0.0000
 42
1.0000
  0
VERTEX
  8
21
 10
229.2132
 20
-190.0420
 30
0.0000
  0
VERTEX
  8
21
 10
229.6523
 20
-189.7865
 30
0.0000
 42
1.0000
  0
SEQEND
  8
0
  0
POLYLINE
  8
21
 66
1
 10
0.0000
 20
0.0000
 30
0.0000
 40
0.0000
 41
0.0000
 70
1
  0
VERTEX
  8
21
 10
229.3584
 20
-189.2816
 30
0.0000
  0
VERTEX
  8
21
 10
228.9193
 20
-189.5371
 30
0.0000
 42
1.0000
  0
VERTEX
  8
21
 10
228.9832
 20
-189.6469
 30
0.0000
  0
VERTEX
  8
21
 10
229.4223
 20
-189.3913
 30
0.0000
 42
1.0000
  0
SEQEND
  8
0
  0
INSERT
  8
51
  2
RECT
 10
229.0558
 20
-189.2667
 30
0.0000
 41
0.3556
 42
0.8128
 43
1.0000
 50
300.2000
  0
INSERT
  8
51
  2
RECT
 10
229.5158
 20
-190.0569
 30
0.0000
 41
0.3556
 42
0.8128
 43
1.0000
 50
300.2000
  0
POLYLINE
  8
21
 66
1
 10
0.0000
 20
0.0000
 30
0.0000
 40
0.0000
 41
0.0000
 70
1
  0
VERTEX
  8
21
 10
229.9141
 20
-168.6872
 30
0.0000
  0
VERTEX
  8
21
 10
230.1711
 20
-168.3091
 30
0.0000
 42
1.0000
  0
VERTEX
  8
21
 10
230.0661
 20
-168.2377
 30
0.0000
  0
VERTEX
  8
21
 10
229.8091
 20
-168.6158
 30
0.0000
 42
1.0000
  0
SEQEND
  8
0
  0
POLYLINE
  8
21
 66
1
 10
0.0000
 20
0.0000
 30
0.0000
 40
0.0000
 41
0.0000
 70
1
  0
VERTEX
  8
21
 10
230.4862
 20
-168.5232
 30
0.0000
  0
VERTEX
  8
21
 10
230.2293
 20
-168.9013
 30
0.0000
 42
1.0000
  0
VERTEX
  8
21
 10
230.3343
 20
-168.9727
 30
0.0000
  0
VERTEX
  8
21
 10
230.5913
 20
-168.5946
 30
0.0000
 42
1.0000
  0
SEQEND
  8
0
  0
POLYLINE
  8
21
 66
1
 10
0.0000
 20
0.0000
 30
0.0000
 40
0.0000
 41
0.0000
 70
1
  0
VERTEX
  8
21
 10
230.0829
 20
-168.3259
 30
0.0000
  0
VERTEX
  8
21
 10
230.5031
 20
-168.6114
 30
0.0000
 42
1.0000
  0
VERTEX
  8
21
 10
230.5745
 20
-168.5064
 30
0.0000
  0
VERTEX
  8
21
 10
230.1543
 20
-168.2208
 30
0.0000
 42
1.0000
  0
SEQEND
  8
0
  0
POLYLINE
  8
21
 66
1
 10
0.0000
 20
0.0000
 30
0.0000
 40
0.0000
 41
0.0000
 70
1
  0
VERTEX
  8
21
 10
229.8259
 20
-168.7040
 30
0.0000
  0
VERTEX
  8
21
 10
230.2461
 20
-168.9896
 30
0.0000
 42
1.0000
  0
VERTEX
  8
21
 10
230.3175
 20
-168.8845
 30
0.0000
  0
VERTEX
  8
21
 10
229.8973
 20
-168.5990
 30
0.0000
 42
1.0000
  0
SEQEND
  8
0
  0
INSERT
  8
51
  2
RECT
 10
229.9432
 20
-168.9833
 30
0.0000
 41
0.3556
 42
0.8128
 43
1.0000
 50
55.8000
  0
INSERT
  8
51
  2
RECT
 10
230.4572
 20
-168.2271
 30
0.0000
 41
0.3556
 42
0.8128
 43
1.0000
 50
55.8000
  0
POLYLINE
  8
21
 66
1
 10
0.0000
 20
0.0000
 30
0.0000
 40
0.0000
 41
0.0000
 70
1
  0
VERTEX
  8
21
 10
234.4332
 20
-189.9608
 30
0.0000
  0
VERTEX
  8
21
 10
234.8140
 20
-190.2138
 30
0.0000
 42
1.0000
  0
VERTEX
  8
21
 10
234.8843
 20
-190.1081
 30
0.0000
  0
VERTEX
  8
21
 10
234.5035
 20
-189.8550
 30
0.0000
 42
1.0000
  0
SEQEND
  8
0
  0
POLYLINE
  8
21
 66
1
 10
0.0000
 20
0.0000
 30
0.0000
 40
0.0000
 41
0.0000
 70
1
  0
VERTEX
  8
21
 10
234.6032
 20
-190.5312
 30
0.0000
  0
VERTEX
  8
21
 10
234.2224
 20
-190.2782
 30
0.0000
 42
1.0000
  0
VERTEX
  8
21
 10
234.1521
 20
-190.3839
 30
0.0000
  0
VERTEX
  8
21
 10
234.5329
 20
-190.6370
 30
0.0000
 42
1.0000
  0
SEQEND
  8
0
  0
POLYLINE
  8
21
 66
1
 10
0.0000
 20
0.0000
 30
0.0000
 40
0.0000
 41
0.0000
 70
1
  0
VERTEX
  8
21
 10
234.7963
 20
-190.1258
 30
0.0000
  0
VERTEX
  8
21
 10
234.5152
 20
-190.5489
 30
0.0000
 42
1.0000
  0
VERTEX
  8
21
 10
234.6209
 20
-190.6192
 30
0.0000
  0
VERTEX
  8
21
 10
234.9021
 20
-190.1961
 30
0.0000
 42
1.0000
  0
SEQEND
  8
0
  0
POLYLINE
  8
21
 66
1
 10
0.0000
 20
0.0000
 30
0.0000
 40
0.0000
 41
0.0000
 70
1
  0
VERTEX
  8
21
 10
234.4155
 20
-189.8728
 30
0.0000
  0
VERTEX
  8
21
 10
234.1343
 20
-190.2959
 30
0.0000
 42
1.0000
  0
VERTEX
  8
21
 10
234.2401
 20
-190.3662
 30
0.0000
  0
VERTEX
  8
21
 10
234.5212
 20
-189.9431
 30
0.0000
 42
1.0000
  0
SEQEND
  8
0
  0
INSERT
  8
51
  2
RECT
 10
234.1374
 20
-189.9930
 30
0.0000
 41
0.3556
 42
0.8128
 43
1.0000
 50
326.4000
  0
INSERT
  8
51
  2
RECT
 10
234.8990
 20
-190.4990
 30
0.0000
 41
0.3556
 42
0.8128
 43
1.0000
 50
326.4000
  0
POLYLINE
  8
21
 66
1
 10
0.0000
 20
0.0000
 30
0.0000
 40
0.0000
 41
0.0000
 70
1
  0
VERTEX
  8
21
 10
206.3541
 20
-184.9579
 30
0.0000
  0
VERTEX
  8
21
 10
205.9039
 20
-185.0380
 30
0.0000
 42
1.0000
  0
VERTEX
  8
21
 10
205.9262
 20
-185.1631
 30
0.0000
  0
VERTEX
  8
21
 10
206.3763
 20
-185.0829
 30
0.0000
 42
1.0000
  0
SEQEND
  8
0
  0
POLYLINE
  8
21
 66
1
 10
0.0000
 20
0.0000
 30
0.0000
 40
0.0000
 41
0.0000
 70
1
  0
VERTEX
  8
21
 10
205.8371
 20
-184.6629
 30
0.0000
  0
VERTEX
  8
21
 10
206.2872
 20
-184.5828
 30
0.0000
 42
1.0000
  0
VERTEX
  8
21
 10
206.2650
 20
-184.4577
 30
0.0000
  0
VERTEX
  8
21
 10
205.8149
 20
-184.5379
 30
0.0000
 42
1.0000
  0
SEQEND
  8
0
  0
POLYLINE
  8
21
 66
1
 10
0.0000
 20
0.0000
 30
0.0000
 40
0.0000
 41
0.0000
 70
1
  0
VERTEX
  8
21
 10
205.9776
 20
-185.0894
 30
0.0000
  0
VERTEX
  8
21
 10
205.8885
 20
-184.5893
 30
0.0000
 42
1.0000
  0
VERTEX
  8
21
 10
205.7635
 20
-184.6116
 30
0.0000
  0
VERTEX
  8
21
 10
205.8526
 20
-185.1117
 30
0.0000
 42
1.0000
  0
SEQEND
  8
0
  0
POLYLINE
  8
21
 66
1
 10
0.0000
 20
0.0000
 30
0.0000
 40
0.0000
 41
0.0000
 70
1
  0
VERTEX
  8
21
 10
206.4277
 20
-185.0092
 30
0.0000
  0
VERTEX
  8
21
 10
206.3386
 20
-184.5091
 30
0.0000
 42
1.0000
  0
VERTEX
  8
21
 10
206.2136
 20
-184.5314
 30
0.0000
  0
VERTEX
  8
21
 10
206.3027
 20
-185.0315
 30
0.0000
 42
1.0000
  0
SEQEND
  8
0
  0
INSERT
  8
51
  2
RECT
 10
206.5457
 20
-184.7302
 30
0.0000
 41
0.3556
 42
0.8128
 43
1.0000
 50
190.1000
  0
INSERT
  8
51
  2
RECT
 10
205.6455
 20
-184.8906
 30
0.0000
 41
0.3556
 42
0.8128
 43
1.0000
 50
190.1000
  0
POLYLINE
  8
21
 66
1
 10
0.0000
 20
0.0000
 30
0.0000
 40
0.0000
 41
0.0000
 70
1
  0
VERTEX
  8
21
 10
223.3380
 20
-162.5955
 30
0.0000
  0
VERTEX
  8
21
 10
219.6380
 20
-162.5955
 30
0.0000
 42
1.0000
  0
VERTEX
  8
21
 10
219.6380
 20
-162.7225
 30
0.0000
  0
VERTEX
  8
21
 10
223.3380
 20
-162.7225
 30
0.0000
 42
1.0000
  0
SEQEND
  8
0
  0
POLYLINE
  8
21
 66
1
 10
0.0000
 20
0.0000
 30
0.0000
 40
0.0000
 41
0.0000
 70
1
  0
VERTEX
  8
21
 10
219.7015
 20
-162.6590
 30
0.0000
  0
VERTEX
  8
21
 10
219.7015
 20
-159.9590
 30
0.0000
 42
1.0000
  0
VERTEX
  8
21
 10
219.5745
 20
-159.9590
 30
0.0000
  0
VERTEX
  8
21
 10
219.5745
 20
-162.6590
 30
0.0000
 42
1.0000
  0
SEQEND
  8
0
  0
POLYLINE
  8
21
 66
1
 10
0.0000
 20
0.0000
 30
0.0000
 40
0.0000
 41
0.0000
 70
1
  0
VERTEX
  8
21
 10
219.7015
 20
-159.9590
 30
0.0000
  0
VERTEX
  8
21
 10
219.7015
 20
-159.1590
 30
0.0000
 42
1.0000
  0
VERTEX
  8
21
 10
219.5745
 20
-159.1590
 30
0.0000
  0
VERTEX
  8
21
 10
219.5745
 20
-159.9590
 30
0.0000
 42
1.0000
  0
SEQEND
  8
0
  0
POLYLINE
  8
21
 66
1
 10
0.0000
 20
0.0000
 30
0.0000
 40
0.0000
 41
0.0000
 70
1
  0
VERTEX
  8
21
 10
219.6380
 20
-159.2225
 30
0.0000
  0
VERTEX
  8
21
 10
220.4380
 20
-159.2225
 30
0.0000
 42
1.0000
  0
VERTEX
  8
21
 10
220.4380
 20
-159.0955
 30
0.0000
  0
VERTEX
  8
21
 10
219.6380
 20
-159.0955
 30
0.0000
 42
1.0000
  0
SEQEND
  8
0
  0
POLYLINE
  8
21
 66
1
 10
0.0000
 20
0.0000
 30
0.0000
 40
0.0000
 41
0.0000
 70
1
  0
VERTEX
  8
21
 10
220.4380
 20
-159.2225
 30
0.0000
  0
VERTEX
  8
21
 10
223.3380
 20
-159.2225
 30
0.0000
 42
1.0000
  0
VERTEX
  8
21
 10
223.3380
 20
-159.0955
 30
0.0000
  0
VERTEX
  8
21
 10
220.4380
 20
-159.0955
 30
0.0000
 42
1.0000
  0
SEQEND
  8
0
  0
POLYLINE
  8
21
 66
1
 10
0.0000
 20
0.0000
 30
0.0000
 40
0.0000
 41
0.0000
 70
1
  0
VERTEX
  8
21
 10
223.2745
 20
-159.1590
 30
0.0000
  0
VERTEX
  8
21
 10
223.2745
 20
-162.6590
 30
0.0000
 42
1.0000
  0
VERTEX
  8
21
 10
223.4015
 20
-162.6590
 30
0.0000
  0
VERTEX
  8
21
 10
223.4015
 20
-159.1590
 30
0.0000
 42
1.0000
  0
SEQEND
  8
0
  0
POLYLINE
  8
21
 66
1
 10
0.0000
 20
0.0000
 30
0.0000
 40
0.0000
 41
0.0000
 70
1
  0
VERTEX
  8
21
 10
219.6829
 20
-160.0039
 30
0.0000
  0
VERTEX
  8
21
 10
220.4829
 20
-159.2039
 30
0.0000
 42
1.0000
  0
VERTEX
  8
21
 10
220.3931
 20
-159.1141
 30
0.0000
  0
VERTEX
  8
21
 10
219.5931
 20
-159.9141
 30
0.0000
 42
1.0000
  0
SEQEND
  8
0
  0
LINE
  8
21
 10
223.4380
 20
-159.6090
 30
0.0000
 11
219.5380
 21
-162.2090
 31
0.0000
  0
LINE
  8
21
 10
223.4380
 20
-162.2090
 30
0.0000
 11
219.5380
 21
-159.6090
 31
0.0000
  0
CIRCLE
  8
21
 10
221.4880
 20
-160.9090
 30
0.0000
 40
1.4903
  0
CIRCLE
  8
21
 10
221.4880
 20
-160.9090
 30
0.0000
 40
1.5903
  0
CIRCLE
  8
21
 10
221.4880
 20
-160.9090
 30
0.0000
 40
1.2842
  0
CIRCLE
  8
21
 10
221.4880
 20
-160.9090
 30
0.0000
 40
1.3842
  0
POLYLINE
  8
21
 66
1
 10
0.0000
 20
0.0000
 30
0.0000
 40
0.0000
 41
0.0000
 70
1
  0
VERTEX
  8
21
 10
228.1323
 20
-163.6866
 30
0.0000
  0
VERTEX
  8
21
 10
224.5652
 20
-162.7041
 30
0.0000
 42
1.0000
  0
VERTEX
  8
21
 10
224.5314
 20
-162.8265
 30
0.0000
  0
VERTEX
  8
21
 10
228.0986
 20
-163.8091
 30
0.0000
 42
1.0000
  0
SEQEND
  8
0
  0
POLYLINE
  8
21
 66
1
 10
0.0000
 20
0.0000
 30
0.0000
 40
0.0000
 41
0.0000
 70
1
  0
VERTEX
  8
21
 10
224.6095
 20
-162.7822
 30
0.0000
  0
VERTEX
  8
21
 10
225.3265
 20
-160.1791
 30
0.0000
 42
1.0000
  0
VERTEX
  8
21
 10
225.2041
 20
-160.1454
 30
0.0000
  0
VERTEX
  8
21
 10
224.4871
 20
-162.7484
 30
0.0000
 42
1.0000
  0
SEQEND
  8
0
  0
POLYLINE
  8
21
 66
1
 10
0.0000
 20
0.0000
 30
0.0000
 40
0.0000
 41
0.0000
 70
1
  0
VERTEX
  8
21
 10
225.3265
 20
-160.1791
 30
0.0000
  0
VERTEX
  8
21
 10
225.5390
 20
-159.4078
 30
0.0000
 42
1.0000
  0
VERTEX
  8
21
 10
225.4165
 20
-159.3741
 30
0.0000
  0
VERTEX
  8
21
 10
225.2041
 20
-160.1454
 30
0.0000
 42
1.0000
  0
SEQEND
  8
0
  0
POLYLINE
  8
21
 66
1
 10
0.0000
 20
0.0000
 30
0.0000
 40
0.0000
 41
0.0000
 70
1
  0
VERTEX
  8
21
 10
225.4609
 20
-159.4522
 30
0.0000
  0
VERTEX
  8
21
 10
226.2322
 20
-159.6646
 30
0.0000
 42
1.0000
  0
VERTEX
  8
21
 10
226.2659
 20
-159.5422
 30
0.0000
  0
VERTEX
  8
21
 10
225.4946
 20
-159.3297
 30
0.0000
 42
1.0000
  0
SEQEND
  8
0
  0
POLYLINE
  8
21
 66
1
 10
0.0000
 20
0.0000
 30
0.0000
 40
0.0000
 41
0.0000
 70
1
  0
VERTEX
  8
21
 10
226.2322
 20
-159.6646
 30
0.0000
  0
VERTEX
  8
21
 10
229.0280
 20
-160.4347
 30
0.0000
 42
1.0000
  0
VERTEX
  8
21
 10
229.0618
 20
-160.3123
 30
0.0000
  0
VERTEX
  8
21
 10
226.2659
 20
-159.5422
 30
0.0000
 42
1.0000
  0
SEQEND
  8
0
  0
POLYLINE
  8
21
 66
1
 10
0.0000
 20
0.0000
 30
0.0000
 40
0.0000
 41
0.0000
 70
1
  0
VERTEX
  8
21
 10
228.9837
 20
-160.3566
 30
0.0000
  0
VERTEX
  8
21
 10
228.0542
 20
-163.7310
 30
0.0000
 42
1.0000
  0
VERTEX
  8
21
 10
228.1767
 20
-163.7647
 30
0.0000
  0
VERTEX
  8
21
 10
229.1061
 20
-160.3904
 30
0.0000
 42
1.0000
  0
SEQEND
  8
0
  0
POLYLINE
  8
21
 66
1
 10
0.0000
 20
0.0000
 30
0.0000
 40
0.0000
 41
0.0000
 70
1
  0
VERTEX
  8
21
 10
225.2967
 20
-160.2174
 30
0.0000
  0
VERTEX
  8
21
 10
226.2804
 20
-159.6586
 30
0.0000
 42
1.0000
  0
VERTEX
  8
21
 10
226.2177
 20
-159.5482
 30
0.0000
  0
VERTEX
  8
21
 10
225.2339
 20
-160.1070
 30
0.0000
 42
1.0000
  0
SEQEND
  8
0
  0
LINE
  8
21
 10
229.0218
 20
-160.8339
 30
0.0000
 11
224.5714
 21
-162.3049
 31
0.0000
  0
LINE
  8
21
 10
228.3314
 20
-163.3406
 30
0.0000
 11
225.2618
 21
-159.7982
 31
0.0000
  0
CIRCLE
  8
21
 10
226.7966
 20
-161.5694
 30
0.0000
 40
1.4903
  0
CIRCLE
  8
21
 10
226.7966
 20
-161.5694
 30
0.0000
 40
1.5903
  0
CIRCLE
  8
21
 10
226.7966
 20
-161.5694
 30
0.0000
 40
1.2842
  0
CIRCLE
  8
21
 10
226.7966
 20
-161.5694
 30
0.0000
 40
1.3842
  0
POLYLINE
  8
21
 66
1
 10
0.0000
 20
0.0000
 30
0.0000
 40
0.0000
 41
0.0000
 70
1
  0
VERTEX
  8
21
 10
232.6609
 20
-166.1140
 30
0.0000
  0
VERTEX
  8
21
 10
229.4566
 20
-164.2640
 30
0.0000
 42
1.0000
  0
VERTEX
  8
21
 10
229.3931
 20
-164.3739
 30
0.0000
  0
VERTEX
  8
21
 10
232.5974
 20
-166.2239
 30
0.0000
 42
1.0000
  0
SEQEND
  8
0
  0
POLYLINE
  8
21
 66
1
 10
0.0000
 20
0.0000
 30
0.0000
 40
0.0000
 41
0.0000
 70
1
  0
VERTEX
  8
21
 10
229.4798
 20
-164.3507
 30
0.0000
  0
VERTEX
  8
21
 10
230.8298
 20
-162.0124
 30
0.0000
 42
1.0000
  0
VERTEX
  8
21
 10
230.7199
 20
-161.9489
 30
0.0000
  0
VERTEX
  8
21
 10
229.3699
 20
-164.2872
 30
0.0000
 42
1.0000
  0
SEQEND
  8
0
  0
POLYLINE
  8
21
 66
1
 10
0.0000
 20
0.0000
 30
0.0000
 40
0.0000
 41
0.0000
 70
1
  0
VERTEX
  8
21
 10
230.8298
 20
-162.0124
 30
0.0000
  0
VERTEX
  8
21
 10
231.2298
 20
-161.3196
 30
0.0000
 42
1.0000
  0
VERTEX
  8
21
 10
231.1199
 20
-161.2561
 30
0.0000
  0
VERTEX
  8
21
 10
230.7199
 20
-161.9489
 30
0.0000
 42
1.0000
  0
SEQEND
  8
0
  0
POLYLINE
  8
21
 66
1
 10
0.0000
 20
0.0000
 30
0.0000
 40
0.0000
 41
0.0000
 70
1
  0
VERTEX
  8
21
 10
231.1431
 20
-161.3428
 30
0.0000
  0
VERTEX
  8
21
 10
231.8359
 20
-161.7428
 30
0.0000
 42
1.0000
  0
VERTEX
  8
21
 10
231.8994
 20
-161.6329
 30
0.0000
  0
VERTEX
  8
21
 10
231.2066
 20
-161.2329
 30
0.0000
 42
1.0000
  0
SEQEND
  8
0
  0
POLYLINE
  8
21
 66
1
 10
0.0000
 20
0.0000
 30
0.0000
 40
0.0000
 41
0.0000
 70
1
  0
VERTEX
  8
21
 10
231.8359
 20
-161.7428
 30
0.0000
  0
VERTEX
  8
21
 10
234.3474
 20
-163.1928
 30
0.0000
 42
1.0000
  0
VERTEX
  8
21
 10
234.4109
 20
-163.0829
 30
0.0000
  0
VERTEX
  8
21
 10
231.8994
 20
-161.6329
 30
0.0000
 42
1.0000
  0
SEQEND
  8
0
  0
POLYLINE
  8
21
 66
1
 10
0.0000
 20
0.0000
 30
0.0000
 40
0.0000
 41
0.0000
 70
1
  0
VERTEX
  8
21
 10
234.3242
 20
-163.1061
 30
0.0000
  0
VERTEX
  8
21
 10
232.5742
 20
-166.1372
 30
0.0000
 42
1.0000
  0
VERTEX
  8
21
 10
232.6841
 20
-166.2007
 30
0.0000
  0
VERTEX
  8
21
 10
234.4341
 20
-163.1696
 30
0.0000
 42
1.0000
  0
SEQEND
  8
0
  0
POLYLINE
  8
21
 66
1
 10
0.0000
 20
0.0000
 30
0.0000
 40
0.0000
 41
0.0000
 70
1
  0
VERTEX
  8
21
 10
230.7913
 20
-162.0420
 30
0.0000
  0
VERTEX
  8
21
 10
231.8841
 20
-161.7492
 30
0.0000
 42
1.0000
  0
VERTEX
  8
21
 10
231.8512
 20
-161.6265
 30
0.0000
  0
VERTEX
  8
21
 10
230.7584
 20
-161.9193
 30
0.0000
 42
1.0000
  0
SEQEND
  8
0
  0
LINE
  8
21
 10
234.2407
 20
-163.5776
 30
0.0000
 11
229.5633
 21
-163.8792
 31
0.0000
  0
LINE
  8
21
 10
232.9407
 20
-165.8292
 30
0.0000
 11
230.8633
 21
-161.6276
 31
0.0000
  0
CIRCLE
  8
21
 10
231.9020
 20
-163.7284
 30
0.0000
 40
1.4903
  0
CIRCLE
  8
21
 10
231.9020
 20
-163.7284
 30
0.0000
 40
1.5903
  0
CIRCLE
  8
21
 10
231.9020
 20
-163.7284
 30
0.0000
 40
1.2842
  0
CIRCLE
  8
21
 10
231.9020
 20
-163.7284
 30
0.0000
 40
1.3842
  0
POLYLINE
  8
21
 66
1
 10
0.0000
 20
0.0000
 30
0.0000
 40
0.0000
 41
0.0000
 70
1
  0
VERTEX
  8
21
 10
236.2594
 20
-169.4803
 30
0.0000
  0
VERTEX
  8
21
 10
233.6431
 20
-166.8640
 30
0.0000
 42
1.0000
  0
VERTEX
  8
21
 10
233.5533
 20
-166.9538
 30
0.0000
  0
VERTEX
  8
21
 10
236.1696
 20
-169.5701
 30
0.0000
 42
1.0000
  0
SEQEND
  8
0
  0
POLYLINE
  8
21
 66
1
 10
0.0000
 20
0.0000
 30
0.0000
 40
0.0000
 41
0.0000
 70
1
  0
VERTEX
  8
21
 10
233.6431
 20
-166.9538
 30
0.0000
  0
VERTEX
  8
21
 10
235.5523
 20
-165.0446
 30
0.0000
 42
1.0000
  0
VERTEX
  8
21
 10
235.4625
 20
-164.9548
 30
0.0000
  0
VERTEX
  8
21
 10
233.5533
 20
-166.8640
 30
0.0000
 42
1.0000
  0
SEQEND
  8
0
  0
POLYLINE
  8
21
 66
1
 10
0.0000
 20
0.0000
 30
0.0000
 40
0.0000
 41
0.0000
 70
1
  0
VERTEX
  8
21
 10
235.5523
 20
-165.0446
 30
0.0000
  0
VERTEX
  8
21
 10
236.1180
 20
-164.4789
 30
0.0000
 42
1.0000
  0
VERTEX
  8
21
 10
236.0282
 20
-164.3891
 30
0.0000
  0
VERTEX
  8
21
 10
235.4625
 20
-164.9548
 30
0.0000
 42
1.0000
  0
SEQEND
  8
0
  0
POLYLINE
  8
21
 66
1
 10
0.0000
 20
0.0000
 30
0.0000
 40
0.0000
 41
0.0000
 70
1
  0
VERTEX
  8
21
 10
236.0282
 20
-164.4789
 30
0.0000
  0
VERTEX
  8
21
 10
236.5939
 20
-165.0446
 30
0.0000
 42
1.0000
  0
VERTEX
  8
21
 10
236.6837
 20
-164.9548
 30
0.0000
  0
VERTEX
  8
21
 10
236.1180
 20
-164.3891
 30
0.0000
 42
1.0000
  0
SEQEND
  8
0
  0
POLYLINE
  8
21
 66
1
 10
0.0000
 20
0.0000
 30
0.0000
 40
0.0000
 41
0.0000
 70
1
  0
VERTEX
  8
21
 10
236.5939
 20
-165.0446
 30
0.0000
  0
VERTEX
  8
21
 10
238.6445
 20
-167.0952
 30
0.0000
 42
1.0000
  0
VERTEX
  8
21
 10
238.7343
 20
-167.0054
 30
0.0000
  0
VERTEX
  8
21
 10
236.6837
 20
-164.9548
 30
0.0000
 42
1.0000
  0
SEQEND
  8
0
  0
POLYLINE
  8
21
 66
1
 10
0.0000
 20
0.0000
 30
0.0000
 40
0.0000
 41
0.0000
 70
1
  0
VERTEX
  8
21
 10
238.6445
 20
-167.0054
 30
0.0000
  0
VERTEX
  8
21
 10
236.1696
 20
-169.4803
 30
0.0000
 42
1.0000
  0
VERTEX
  8
21
 10
236.2594
 20
-169.5701
 30
0.0000
  0
VERTEX
  8
21
 10
238.7343
 20
-167.0952
 30
0.0000
 42
1.0000
  0
SEQEND
  8
0
  0
POLYLINE
  8
21
 66
1
 10
0.0000
 20
0.0000
 30
0.0000
 40
0.0000
 41
0.0000
 70
1
  0
VERTEX
  8
21
 10
235.5074
 20
-165.0632
 30
0.0000
  0
VERTEX
  8
21
 10
236.6388
 20
-165.0632
 30
0.0000
 42
1.0000
  0
VERTEX
  8
21
 10
236.6388
 20
-164.9362
 30
0.0000
  0
VERTEX
  8
21
 10
235.5074
 20
-164.9362
 30
0.0000
 42
1.0000
  0
SEQEND
  8
0
  0
LINE
  8
21
 10
238.4419
 20
-167.4392
 30
0.0000
 11
233.8457
 21
-166.5200
 31
0.0000
  0
LINE
  8
21
 10
236.6034
 20
-169.2777
 30
0.0000
 11
235.6842
 21
-164.6815
 31
0.0000
  0
CIRCLE
  8
21
 10
236.1438
 20
-166.9796
 30
0.0000
 40
1.4903
  0
CIRCLE
  8
21
 10
236.1438
 20
-166.9796
 30
0.0000
 40
1.5903
  0
CIRCLE
  8
21
 10
236.1438
 20
-166.9796
 30
0.0000
 40
1.2842
  0
CIRCLE
  8
21
 10
236.1438
 20
-166.9796
 30
0.0000
 40
1.3842
  0
POLYLINE
  8
21
 66
1
 10
0.0000
 20
0.0000
 30
0.0000
 40
0.0000
 41
0.0000
 70
1
  0
VERTEX
  8
21
 10
238.8848
 20
-173.6922
 30
0.0000
  0
VERTEX
  8
21
 10
237.0348
 20
-170.4879
 30
0.0000
 42
1.0000
  0
VERTEX
  8
21
 10
236.9249
 20
-170.5514
 30
0.0000
  0
VERTEX
  8
21
 10
238.7749
 20
-173.7557
 30
0.0000
 42
1.0000
  0
SEQEND
  8
0
  0
POLYLINE
  8
21
 66
1
 10
0.0000
 20
0.0000
 30
0.0000
 40
0.0000
 41
0.0000
 70
1
  0
VERTEX
  8
21
 10
237.0116
 20
-170.5746
 30
0.0000
  0
VERTEX
  8
21
 10
239.3499
 20
-169.2246
 30
0.0000
 42
1.0000
  0
VERTEX
  8
21
 10
239.2864
 20
-169.1147
 30
0.0000
  0
VERTEX
  8
21
 10
236.9481
 20
-170.4647
 30
0.0000
 42
1.0000
  0
SEQEND
  8
0
  0
POLYLINE
  8
21
 66
1
 10
0.0000
 20
0.0000
 30
0.0000
 40
0.0000
 41
0.0000
 70
1
  0
VERTEX
  8
21
 10
239.3499
 20
-169.2246
 30
0.0000
  0
VERTEX
  8
21
 10
240.0427
 20
-168.8246
 30
0.0000
 42
1.0000
  0
VERTEX
  8
21
 10
239.9792
 20
-168.7147
 30
0.0000
  0
VERTEX
  8
21
 10
239.2864
 20
-169.1147
 30
0.0000
 42
1.0000
  0
SEQEND
  8
0
  0
POLYLINE
  8
21
 66
1
 10
0.0000
 20
0.0000
 30
0.0000
 40
0.0000
 41
0.0000
 70
1
  0
VERTEX
  8
21
 10
239.9560
 20
-168.8014
 30
0.0000
  0
VERTEX
  8
21
 10
240.3560
 20
-169.4942
 30
0.0000
 42
1.0000
  0
VERTEX
  8
21
 10
240.4659
 20
-169.4307
 30
0.0000
  0
VERTEX
  8
21
 10
240.0659
 20
-168.7379
 30
0.0000
 42
1.0000
  0
SEQEND
  8
0
  0
POLYLINE
  8
21
 66
1
 10
0.0000
 20
0.0000
 30
0.0000
 40
0.0000
 41
0.0000
 70
1
  0
VERTEX
  8
21
 10
240.3560
 20
-169.4942
 30
0.0000
  0
VERTEX
  8
21
 10
241.8060
 20
-172.0057
 30
0.0000
 42
1.0000
  0
VERTEX
  8
21
 10
241.9159
 20
-171.9422
 30
0.0000
  0
VERTEX
  8
21
 10
240.4659
 20
-169.4307
 30
0.0000
 42
1.0000
  0
SEQEND
  8
0
  0
POLYLINE
  8
21
 66
1
 10
0.0000
 20
0.0000
 30
0.0000
 40
0.0000
 41
0.0000
 70
1
  0
VERTEX
  8
21
 10
241.8292
 20
-171.9190
 30
0.0000
  0
VERTEX
  8
21
 10
238.7981
 20
-173.6690
 30
0.0000
 42
1.0000
  0
VERTEX
  8
21
 10
238.8616
 20
-173.7789
 30
0.0000
  0
VERTEX
  8
21
 10
241.8927
 20
-172.0289
 30
0.0000
 42
1.0000
  0
SEQEND
  8
0
  0
POLYLINE
  8
21
 66
1
 10
0.0000
 20
0.0000
 30
0.0000
 40
0.0000
 41
0.0000
 70
1
  0
VERTEX
  8
21
 10
239.3017
 20
-169.2310
 30
0.0000
  0
VERTEX
  8
21
 10
240.3945
 20
-169.5238
 30
0.0000
 42
1.0000
  0
VERTEX
  8
21
 10
240.4274
 20
-169.4011
 30
0.0000
  0
VERTEX
  8
21
 10
239.3346
 20
-169.1083
 30
0.0000
 42
1.0000
  0
SEQEND
  8
0
  0
LINE
  8
21
 10
241.5212
 20
-172.2855
 30
0.0000
 11
237.3196
 21
-170.2081
 31
0.0000
  0
LINE
  8
21
 10
239.2696
 20
-173.5855
 30
0.0000
 11
239.5712
 21
-168.9081
 31
0.0000
  0
CIRCLE
  8
21
 10
239.4204
 20
-171.2468
 30
0.0000
 40
1.4903
  0
CIRCLE
  8
21
 10
239.4204
 20
-171.2468
 30
0.0000
 40
1.5903
  0
CIRCLE
  8
21
 10
239.4204
 20
-171.2468
 30
0.0000
 40
1.2842
  0
CIRCLE
  8
21
 10
239.4204
 20
-171.2468
 30
0.0000
 40
1.3842
  0
POLYLINE
  8
21
 66
1
 10
0.0000
 20
0.0000
 30
0.0000
 40
0.0000
 41
0.0000
 70
1
  0
VERTEX
  8
21
 10
240.3530
 20
-178.5249
 30
0.0000
  0
VERTEX
  8
21
 10
239.3953
 20
-174.9509
 30
0.0000
 42
1.0000
  0
VERTEX
  8
21
 10
239.2727
 20
-174.9838
 30
0.0000
  0
VERTEX
  8
21
 10
240.2303
 20
-178.5577
 30
0.0000
 42
1.0000
  0
SEQEND
  8
0
  0
POLYLINE
  8
21
 66
1
 10
0.0000
 20
0.0000
 30
0.0000
 40
0.0000
 41
0.0000
 70
1
  0
VERTEX
  8
21
 10
239.3504
 20
-175.0287
 30
0.0000
  0
VERTEX
  8
21
 10
241.9584
 20
-174.3299
 30
0.0000
 42
1.0000
  0
VERTEX
  8
21
 10
241.9256
 20
-174.2072
 30
0.0000
  0
VERTEX
  8
21
 10
239.3176
 20
-174.9060
 30
0.0000
 42
1.0000
  0
SEQEND
  8
0
  0
POLYLINE
  8
21
 66
1
 10
0.0000
 20
0.0000
 30
0.0000
 40
0.0000
 41
0.0000
 70
1
  0
VERTEX
  8
21
 10
241.9584
 20
-174.3299
 30
0.0000
  0
VERTEX
  8
21
 10
242.7312
 20
-174.1228
 30
0.0000
 42
1.0000
  0
VERTEX
  8
21
 10
242.6983
 20
-174.0002
 30
0.0000
  0
VERTEX
  8
21
 10
241.9256
 20
-174.2072
 30
0.0000
 42
1.0000
  0
SEQEND
  8
0
  0
POLYLINE
  8
21
 66
1
 10
0.0000
 20
0.0000
 30
0.0000
 40
0.0000
 41
0.0000
 70
1
  0
VERTEX
  8
21
 10
242.6534
 20
-174.0779
 30
0.0000
  0
VERTEX
  8
21
 10
242.8605
 20
-174.8507
 30
0.0000
 42
1.0000
  0
VERTEX
  8
21
 10
242.9831
 20
-174.8178
 30
0.0000
  0
VERTEX
  8
21
 10
242.7761
 20
-174.0451
 30
0.0000
 42
1.0000
  0
SEQEND
  8
0
  0
POLYLINE
  8
21
 66
1
 10
0.0000
 20
0.0000
 30
0.0000
 40
0.0000
 41
0.0000
 70
1
  0
VERTEX
  8
21
 10
242.8605
 20
-174.8507
 30
0.0000
  0
VERTEX
  8
21
 10
243.6110
 20
-177.6519
 30
0.0000
 42
1.0000
  0
VERTEX
  8
21
 10
243.7337
 20
-177.6190
 30
0.0000
  0
VERTEX
  8
21
 10
242.9831
 20
-174.8178
 30
0.0000
 42
1.0000
  0
SEQEND
  8
0
  0
POLYLINE
  8
21
 66
1
 10
0.0000
 20
0.0000
 30
0.0000
 40
0.0000
 41
0.0000
 70
1
  0
VERTEX
  8
21
 10
243.6559
 20
-177.5741
 30
0.0000
  0
VERTEX
  8
21
 10
240.2752
 20
-178.4800
 30
0.0000
 42
1.0000
  0
VERTEX
  8
21
 10
240.3081
 20
-178.6026
 30
0.0000
  0
VERTEX
  8
21
 10
243.6888
 20
-177.6968
 30
0.0000
 42
1.0000
  0
SEQEND
  8
0
  0
POLYLINE
  8
21
 66
1
 10
0.0000
 20
0.0000
 30
0.0000
 40
0.0000
 41
0.0000
 70
1
  0
VERTEX
  8
21
 10
241.9103
 20
-174.3235
 30
0.0000
  0
VERTEX
  8
21
 10
242.8901
 20
-174.8892
 30
0.0000
 42
1.0000
  0
VERTEX
  8
21
 10
242.9536
 20
-174.7793
 30
0.0000
  0
VERTEX
  8
21
 10
241.9738
 20
-174.2136
 30
0.0000
 42
1.0000
  0
SEQEND
  8
0
  0
LINE
  8
21
 10
243.2636
 20
-177.8485
 30
0.0000
 11
239.7428
 21
-174.7543
 31
0.0000
  0
LINE
  8
21
 10
240.7522
 20
-178.5214
 30
0.0000
 11
242.2542
 21
-174.0814
 31
0.0000
  0
CIRCLE
  8
21
 10
241.5032
 20
-176.3014
 30
0.0000
 40
1.4903
  0
CIRCLE
  8
21
 10
241.5032
 20
-176.3014
 30
0.0000
 40
1.5903
  0
CIRCLE
  8
21
 10
241.5032
 20
-176.3014
 30
0.0000
 40
1.2842
  0
CIRCLE
  8
21
 10
241.5032
 20
-176.3014
 30
0.0000
 40
1.3842
  0
POLYLINE
  8
21
 66
1
 10
0.0000
 20
0.0000
 30
0.0000
 40
0.0000
 41
0.0000
 70
1
  0
VERTEX
  8
21
 10
240.4771
 20
-183.5108
 30
0.0000
  0
VERTEX
  8
21
 10
240.4771
 20
-179.8108
 30
0.0000
 42
1.0000
  0
VERTEX
  8
21
 10
240.3501
 20
-179.8108
 30
0.0000
  0
VERTEX
  8
21
 10
240.3501
 20
-183.5108
 30
0.0000
 42
1.0000
  0
SEQEND
  8
0
  0
POLYLINE
  8
21
 66
1
 10
0.0000
 20
0.0000
 30
0.0000
 40
0.0000
 41
0.0000
 70
1
  0
VERTEX
  8
21
 10
240.4136
 20
-179.8743
 30
0.0000
  0
VERTEX
  8
21
 10
243.1136
 20
-179.8743
 30
0.0000
 42
1.0000
  0
VERTEX
  8
21
 10
243.1136
 20
-179.7473
 30
0.0000
  0
VERTEX
  8
21
 10
240.4136
 20
-179.7473
 30
0.0000
 42
1.0000
  0
SEQEND
  8
0
  0
POLYLINE
  8
21
 66
1
 10
0.0000
 20
0.0000
 30
0.0000
 40
0.0000
 41
0.0000
 70
1
  0
VERTEX
  8
21
 10
243.1136
 20
-179.8743
 30
0.0000
  0
VERTEX
  8
21
 10
243.9136
 20
-179.8743
 30
0.0000
 42
1.0000
  0
VERTEX
  8
21
 10
243.9136
 20
-179.7473
 30
0.0000
  0
VERTEX
  8
21
 10
243.1136
 20
-179.7473
 30
0.0000
 42
1.0000
  0
SEQEND
  8
0
  0
POLYLINE
  8
21
 66
1
 10
0.0000
 20
0.0000
 30
0.0000
 40
0.0000
 41
0.0000
 70
1
  0
VERTEX
  8
21
 10
243.8501
 20
-179.8108
 30
0.0000
  0
VERTEX
  8
21
 10
243.8501
 20
-180.6108
 30
0.0000
 42
1.0000
  0
VERTEX
  8
21
 10
243.9771
 20
-180.6108
 30
0.0000
  0
VERTEX
  8
21
 10
243.9771
 20
-179.8108
 30
0.0000
 42
1.0000
  0
SEQEND
  8
0
  0
POLYLINE
  8
21
 66
1
 10
0.0000
 20
0.0000
 30
0.0000
 40
0.0000
 41
0.0000
 70
1
  0
VERTEX
  8
21
 10
243.8501
 20
-180.6108
 30
0.0000
  0
VERTEX
  8
21
 10
243.8501
 20
-183.5108
 30
0.0000
 42
1.0000
  0
VERTEX
  8
21
 10
243.9771
 20
-183.5108
 30
0.0000
  0
VERTEX
  8
21
 10
243.9771
 20
-180.6108
 30
0.0000
 42
1.0000
  0
SEQEND
  8
0
  0
POLYLINE
  8
21
 66
1
 10
0.0000
 20
0.0000
 30
0.0000
 40
0.0000
 41
0.0000
 70
1
  0
VERTEX
  8
21
 10
243.9136
 20
-183.4473
 30
0.0000
  0
VERTEX
  8
21
 10
240.4136
 20
-183.4473
 30
0.0000
 42
1.0000
  0
VERTEX
  8
21
 10
240.4136
 20
-183.5743
 30
0.0000
  0
VERTEX
  8
21
 10
243.9136
 20
-183.5743
 30
0.0000
 42
1.0000
  0
SEQEND
  8
0
  0
POLYLINE
  8
21
 66
1
 10
0.0000
 20
0.0000
 30
0.0000
 40
0.0000
 41
0.0000
 70
1
  0
VERTEX
  8
21
 10
243.0687
 20
-179.8557
 30
0.0000
  0
VERTEX
  8
21
 10
243.8687
 20
-180.6557
 30
0.0000
 42
1.0000
  0
VERTEX
  8
21
 10
243.9585
 20
-180.5659
 30
0.0000
  0
VERTEX
  8
21
 10
243.1585
 20
-179.7659
 30
0.0000
 42
1.0000
  0
SEQEND
  8
0
  0
LINE
  8
21
 10
243.4636
 20
-183.6108
 30
0.0000
 11
240.8636
 21
-179.7108
 31
0.0000
  0
LINE
  8
21
 10
240.8636
 20
-183.6108
 30
0.0000
 11
243.4636
 21
-179.7108
 31
0.0000
  0
CIRCLE
  8
21
 10
242.1636
 20
-181.6608
 30
0.0000
 40
1.4903
  0
CIRCLE
  8
21
 10
242.1636
 20
-181.6608
 30
0.0000
 40
1.5903
  0
CIRCLE
  8
21
 10
242.1636
 20
-181.6608
 30
0.0000
 40
1.2842
  0
CIRCLE
  8
21
 10
242.1636
 20
-181.6608
 30
0.0000
 40
1.3842
  0
POLYLINE
  8
21
 66
1
 10
0.0000
 20
0.0000
 30
0.0000
 40
0.0000
 41
0.0000
 70
1
  0
VERTEX
  8
21
 10
239.3445
 20
-188.3961
 30
0.0000
  0
VERTEX
  8
21
 10
240.3022
 20
-184.8221
 30
0.0000
 42
1.0000
  0
VERTEX
  8
21
 10
240.1795
 20
-184.7893
 30
0.0000
  0
VERTEX
  8
21
 10
239.2219
 20
-188.3632
 30
0.0000
 42
1.0000
  0
SEQEND
  8
0
  0
POLYLINE
  8
21
 66
1
 10
0.0000
 20
0.0000
 30
0.0000
 40
0.0000
 41
0.0000
 70
1
  0
VERTEX
  8
21
 10
240.2244
 20
-184.8670
 30
0.0000
  0
VERTEX
  8
21
 10
242.8324
 20
-185.5658
 30
0.0000
 42
1.0000
  0
VERTEX
  8
21
 10
242.8653
 20
-185.4432
 30
0.0000
  0
VERTEX
  8
21
 10
240.2573
 20
-184.7444
 30
0.0000
 42
1.0000
  0
SEQEND
  8
0
  0
POLYLINE
  8
21
 66
1
 10
0.0000
 20
0.0000
 30
0.0000
 40
0.0000
 41
0.0000
 70
1
  0
VERTEX
  8
21
 10
242.8324
 20
-185.5658
 30
0.0000
  0
VERTEX
  8
21
 10
243.6051
 20
-185.7729
 30
0.0000
 42
1.0000
  0
VERTEX
  8
21
 10
243.6380
 20
-185.6502
 30
0.0000
  0
VERTEX
  8
21
 10
242.8653
 20
-185.4432
 30
0.0000
 42
1.0000
  0
SEQEND
  8
0
  0
POLYLINE
  8
21
 66
1
 10
0.0000
 20
0.0000
 30
0.0000
 40
0.0000
 41
0.0000
 70
1
  0
VERTEX
  8
21
 10
243.5602
 20
-185.6951
 30
0.0000
  0
VERTEX
  8
21
 10
243.3532
 20
-186.4679
 30
0.0000
 42
1.0000
  0
VERTEX
  8
21
 10
243.4759
 20
-186.5007
 30
0.0000
  0
VERTEX
  8
21
 10
243.6829
 20
-185.7280
 30
0.0000
 42
1.0000
  0
SEQEND
  8
0
  0
POLYLINE
  8
21
 66
1
 10
0.0000
 20
0.0000
 30
0.0000
 40
0.0000
 41
0.0000
 70
1
  0
VERTEX
  8
21
 10
243.3532
 20
-186.4679
 30
0.0000
  0
VERTEX
  8
21
 10
242.6026
 20
-189.2691
 30
0.0000
 42
1.0000
  0
VERTEX
  8
21
 10
242.7253
 20
-189.3019
 30
0.0000
  0
VERTEX
  8
21
 10
243.4759
 20
-186.5007
 30
0.0000
 42
1.0000
  0
SEQEND
  8
0
  0
POLYLINE
  8
21
 66
1
 10
0.0000
 20
0.0000
 30
0.0000
 40
0.0000
 41
0.0000
 70
1
  0
VERTEX
  8
21
 10
242.6804
 20
-189.2242
 30
0.0000
  0
VERTEX
  8
21
 10
239.2996
 20
-188.3183
 30
0.0000
 42
1.0000
  0
VERTEX
  8
21
 10
239.2668
 20
-188.4410
 30
0.0000
  0
VERTEX
  8
21
 10
242.6475
 20
-189.3468
 30
0.0000
 42
1.0000
  0
SEQEND
  8
0
  0
POLYLINE
  8
21
 66
1
 10
0.0000
 20
0.0000
 30
0.0000
 40
0.0000
 41
0.0000
 70
1
  0
VERTEX
  8
21
 10
242.7939
 20
-185.5363
 30
0.0000
  0
VERTEX
  8
21
 10
243.3595
 20
-186.5161
 30
0.0000
 42
1.0000
  0
VERTEX
  8
21
 10
243.4695
 20
-186.4526
 30
0.0000
  0
VERTEX
  8
21
 10
242.9038
 20
-185.4728
 30
0.0000
 42
1.0000
  0
SEQEND
  8
0
  0
LINE
  8
21
 10
242.2034
 20
-189.2656
 30
0.0000
 11
240.7014
 21
-184.8256
 31
0.0000
  0
LINE
  8
21
 10
239.6920
 20
-188.5927
 30
0.0000
 11
243.2128
 21
-185.4985
 31
0.0000
  0
CIRCLE
  8
21
 10
241.4524
 20
-187.0456
 30
0.0000
 40
1.4903
  0
CIRCLE
  8
21
 10
241.4524
 20
-187.0456
 30
0.0000
 40
1.5903
  0
CIRCLE
  8
21
 10
241.4524
 20
-187.0456
 30
0.0000
 40
1.2842
  0
CIRCLE
  8
21
 10
241.4524
 20
-187.0456
 30
0.0000
 40
1.3842
  0
POLYLINE
  8
21
 66
1
 10
0.0000
 20
0.0000
 30
0.0000
 40
0.0000
 41
0.0000
 70
1
  0
VERTEX
  8
21
 10
236.9586
 20
-192.8083
 30
0.0000
  0
VERTEX
  8
21
 10
238.8086
 20
-189.6040
 30
0.0000
 42
1.0000
  0
VERTEX
  8
21
 10
238.6987
 20
-189.5405
 30
0.0000
  0
VERTEX
  8
21
 10
236.8487
 20
-192.7448
 30
0.0000
 42
1.0000
  0
SEQEND
  8
0
  0
POLYLINE
  8
21
 66
1
 10
0.0000
 20
0.0000
 30
0.0000
 40
0.0000
 41
0.0000
 70
1
  0
VERTEX
  8
21
 10
238.7219
 20
-189.6272
 30
0.0000
  0
VERTEX
  8
21
 10
241.0602
 20
-190.9772
 30
0.0000
 42
1.0000
  0
VERTEX
  8
21
 10
241.1237
 20
-190.8673
 30
0.0000
  0
VERTEX
  8
21
 10
238.7854
 20
-189.5173
 30
0.0000
 42
1.0000
  0
SEQEND
  8
0
  0
POLYLINE
  8
21
 66
1
 10
0.0000
 20
0.0000
 30
0.0000
 40
0.0000
 41
0.0000
 70
1
  0
VERTEX
  8
21
 10
241.0602
 20
-190.9772
 30
0.0000
  0
VERTEX
  8
21
 10
241.7530
 20
-191.3772
 30
0.0000
 42
1.0000
  0
VERTEX
  8
21
 10
241.8165
 20
-191.2673
 30
0.0000
  0
VERTEX
  8
21
 10
241.1237
 20
-190.8673
 30
0.0000
 42
1.0000
  0
SEQEND
  8
0
  0
POLYLINE
  8
21
 66
1
 10
0.0000
 20
0.0000
 30
0.0000
 40
0.0000
 41
0.0000
 70
1
  0
VERTEX
  8
21
 10
241.7298
 20
-191.2905
 30
0.0000
  0
VERTEX
  8
21
 10
241.3298
 20
-191.9833
 30
0.0000
 42
1.0000
  0
VERTEX
  8
21
 10
241.4397
 20
-192.0468
 30
0.0000
  0
VERTEX
  8
21
 10
241.8397
 20
-191.3540
 30
0.0000
 42
1.0000
  0
SEQEND
  8
0
  0
POLYLINE
  8
21
 66
1
 10
0.0000
 20
0.0000
 30
0.0000
 40
0.0000
 41
0.0000
 70
1
  0
VERTEX
  8
21
 10
241.3298
 20
-191.9833
 30
0.0000
  0
VERTEX
  8
21
 10
239.8798
 20
-194.4948
 30
0.0000
 42
1.0000
  0
VERTEX
  8
21
 10
239.9897
 20
-194.5583
 30
0.0000
  0
VERTEX
  8
21
 10
241.4397
 20
-192.0468
 30
0.0000
 42
1.0000
  0
SEQEND
  8
0
  0
POLYLINE
  8
21
 66
1
 10
0.0000
 20
0.0000
 30
0.0000
 40
0.0000
 41
0.0000
 70
1
  0
VERTEX
  8
21
 10
239.9665
 20
-194.4716
 30
0.0000
  0
VERTEX
  8
21
 10
236.9354
 20
-192.7216
 30
0.0000
 42
1.0000
  0
VERTEX
  8
21
 10
236.8719
 20
-192.8315
 30
0.0000
  0
VERTEX
  8
21
 10
239.9030
 20
-194.5815
 30
0.0000
 42
1.0000
  0
SEQEND
  8
0
  0
POLYLINE
  8
21
 66
1
 10
0.0000
 20
0.0000
 30
0.0000
 40
0.0000
 41
0.0000
 70
1
  0
VERTEX
  8
21
 10
241.0306
 20
-190.9387
 30
0.0000
  0
VERTEX
  8
21
 10
241.3234
 20
-192.0315
 30
0.0000
 42
1.0000
  0
VERTEX
  8
21
 10
241.4461
 20
-191.9986
 30
0.0000
  0
VERTEX
  8
21
 10
241.1533
 20
-190.9058
 30
0.0000
 42
1.0000
  0
SEQEND
  8
0
  0
LINE
  8
21
 10
239.4950
 20
-194.3881
 30
0.0000
 11
239.1934
 21
-189.7107
 31
0.0000
  0
LINE
  8
21
 10
237.2434
 20
-193.0881
 30
0.0000
 11
241.4450
 21
-191.0106
 31
0.0000
  0
CIRCLE
  8
21
 10
239.3442
 20
-192.0494
 30
0.0000
 40
1.4903
  0
CIRCLE
  8
21
 10
239.3442
 20
-192.0494
 30
0.0000
 40
1.5903
  0
CIRCLE
  8
21
 10
239.3442
 20
-192.0494
 30
0.0000
 40
1.2842
  0
CIRCLE
  8
21
 10
239.3442
 20
-192.0494
 30
0.0000
 40
1.3842
  0
POLYLINE
  8
21
 66
1
 10
0.0000
 20
0.0000
 30
0.0000
 40
0.0000
 41
0.0000
 70
1
  0
VERTEX
  8
21
 10
233.5923
 20
-196.3814
 30
0.0000
  0
VERTEX
  8
21
 10
236.2086
 20
-193.7651
 30
0.0000
 42
1.0000
  0
VERTEX
  8
21
 10
236.1188
 20
-193.6753
 30
0.0000
  0
VERTEX
  8
21
 10
233.5025
 20
-196.2916
 30
0.0000
 42
1.0000
  0
SEQEND
  8
0
  0
POLYLINE
  8
21
 66
1
 10
0.0000
 20
0.0000
 30
0.0000
 40
0.0000
 41
0.0000
 70
1
  0
VERTEX
  8
21
 10
236.1188
 20
-193.7651
 30
0.0000
  0
VERTEX
  8
21
 10
238.0280
 20
-195.6743
 30
0.0000
 42
1.0000
  0
VERTEX
  8
21
 10
238.1178
 20
-195.5845
 30
0.0000
  0
VERTEX
  8
21
 10
236.2086
 20
-193.6753
 30
0.0000
 42
1.0000
  0
SEQEND
  8
0
  0
POLYLINE
  8
21
 66
1
 10
0.0000
 20
0.0000
 30
0.0000
 40
0.0000
 41
0.0000
 70
1
  0
VERTEX
  8
21
 10
238.0280
 20
-195.6743
 30
0.0000
  0
VERTEX
  8
21
 10
238.5937
 20
-196.2400
 30
0.0000
 42
1.0000
  0
VERTEX
  8
21
 10
238.6835
 20
-196.1502
 30
0.0000
  0
VERTEX
  8
21
 10
238.1178
 20
-195.5845
 30
0.0000
 42
1.0000
  0
SEQEND
  8
0
  0
POLYLINE
  8
21
 66
1
 10
0.0000
 20
0.0000
 30
0.0000
 40
0.0000
 41
0.0000
 70
1
  0
VERTEX
  8
21
 10
238.5937
 20
-196.1502
 30
0.0000
  0
VERTEX
  8
21
 10
238.0280
 20
-196.7159
 30
0.0000
 42
1.0000
  0
VERTEX
  8
21
 10
238.1178
 20
-196.8057
 30
0.0000
  0
VERTEX
  8
21
 10
238.6835
 20
-196.2400
 30
0.0000
 42
1.0000
  0
SEQEND
  8
0
  0
POLYLINE
  8
21
 66
1
 10
0.0000
 20
0.0000
 30
0.0000
 40
0.0000
 41
0.0000
 70
1
  0
VERTEX
  8
21
 10
238.0280
 20
-196.7159
 30
0.0000
  0
VERTEX
  8
21
 10
235.9774
 20
-198.7665
 30
0.0000
 42
1.0000
  0
VERTEX
  8
21
 10
236.0672
 20
-198.8563
 30
0.0000
  0
VERTEX
  8
21
 10
238.1178
 20
-196.8057
 30
0.0000
 42
1.0000
  0
SEQEND
  8
0
  0
POLYLINE
  8
21
 66
1
 10
0.0000
 20
0.0000
 30
0.0000
 40
0.0000
 41
0.0000
 70
1
  0
VERTEX
  8
21
 10
236.0672
 20
-198.7665
 30
0.0000
  0
VERTEX
  8
21
 10
233.5923
 20
-196.2916
 30
0.0000
 42
1.0000
  0
VERTEX
  8
21
 10
233.5025
 20
-196.3814
 30
0.0000
  0
VERTEX
  8
21
 10
235.9774
 20
-198.8563
 30
0.0000
 42
1.0000
  0
SEQEND
  8
0
  0
POLYLINE
  8
21
 66
1
 10
0.0000
 20
0.0000
 30
0.0000
 40
0.0000
 41
0.0000
 70
1
  0
VERTEX
  8
21
 10
238.0094
 20
-195.6294
 30
0.0000
  0
VERTEX
  8
21
 10
238.0094
 20
-196.7608
 30
0.0000
 42
1.0000
  0
VERTEX
  8
21
 10
238.1364
 20
-196.7608
 30
0.0000
  0
VERTEX
  8
21
 10
238.1364
 20
-195.6294
 30
0.0000
 42
1.0000
  0
SEQEND
  8
0
  0
LINE
  8
21
 10
235.6334
 20
-198.5639
 30
0.0000
 11
236.5526
 21
-193.9677
 31
0.0000
  0
LINE
  8
21
 10
233.7949
 20
-196.7254
 30
0.0000
 11
238.3911
 21
-195.8062
 31
0.0000
  0
CIRCLE
  8
21
 10
236.0930
 20
-196.2658
 30
0.0000
 40
1.4903
  0
CIRCLE
  8
21
 10
236.0930
 20
-196.2658
 30
0.0000
 40
1.5903
  0
CIRCLE
  8
21
 10
236.0930
 20
-196.2658
 30
0.0000
 40
1.2842
  0
CIRCLE
  8
21
 10
236.0930
 20
-196.2658
 30
0.0000
 40
1.3842
  0
POLYLINE
  8
21
 66
1
 10
0.0000
 20
0.0000
 30
0.0000
 40
0.0000
 41
0.0000
 70
1
  0
VERTEX
  8
21
 10
229.3804
 20
-199.0068
 30
0.0000
  0
VERTEX
  8
21
 10
232.5847
 20
-197.1568
 30
0.0000
 42
1.0000
  0
VERTEX
  8
21
 10
232.5212
 20
-197.0469
 30
0.0000
  0
VERTEX
  8
21
 10
229.3169
 20
-198.8969
 30
0.0000
 42
1.0000
  0
SEQEND
  8
0
  0
POLYLINE
  8
21
 66
1
 10
0.0000
 20
0.0000
 30
0.0000
 40
0.0000
 41
0.0000
 70
1
  0
VERTEX
  8
21
 10
232.4980
 20
-197.1336
 30
0.0000
  0
VERTEX
  8
21
 10
233.8480
 20
-199.4719
 30
0.0000
 42
1.0000
  0
VERTEX
  8
21
 10
233.9579
 20
-199.4084
 30
0.0000
  0
VERTEX
  8
21
 10
232.6079
 20
-197.0701
 30
0.0000
 42
1.0000
  0
SEQEND
  8
0
  0
POLYLINE
  8
21
 66
1
 10
0.0000
 20
0.0000
 30
0.0000
 40
0.0000
 41
0.0000
 70
1
  0
VERTEX
  8
21
 10
233.8480
 20
-199.4719
 30
0.0000
  0
VERTEX
  8
21
 10
234.2480
 20
-200.1647
 30
0.0000
 42
1.0000
  0
VERTEX
  8
21
 10
234.3579
 20
-200.1012
 30
0.0000
  0
VERTEX
  8
21
 10
233.9579
 20
-199.4084
 30
0.0000
 42
1.0000
  0
SEQEND
  8
0
  0
POLYLINE
  8
21
 66
1
 10
0.0000
 20
0.0000
 30
0.0000
 40
0.0000
 41
0.0000
 70
1
  0
VERTEX
  8
21
 10
234.2712
 20
-200.0780
 30
0.0000
  0
VERTEX
  8
21
 10
233.5784
 20
-200.4780
 30
0.0000
 42
1.0000
  0
VERTEX
  8
21
 10
233.6419
 20
-200.5879
 30
0.0000
  0
VERTEX
  8
21
 10
234.3347
 20
-200.1879
 30
0.0000
 42
1.0000
  0
SEQEND
  8
0
  0
POLYLINE
  8
21
 66
1
 10
0.0000
 20
0.0000
 30
0.0000
 40
0.0000
 41
0.0000
 70
1
  0
VERTEX
  8
21
 10
233.5784
 20
-200.4780
 30
0.0000
  0
VERTEX
  8
21
 10
231.0669
 20
-201.9280
 30
0.0000
 42
1.0000
  0
VERTEX
  8
21
 10
231.1304
 20
-202.0379
 30
0.0000
  0
VERTEX
  8
21
 10
233.6419
 20
-200.5879
 30
0.0000
 42
1.0000
  0
SEQEND
  8
0
  0
POLYLINE
  8
21
 66
1
 10
0.0000
 20
0.0000
 30
0.0000
 40
0.0000
 41
0.0000
 70
1
  0
VERTEX
  8
21
 10
231.1536
 20
-201.9512
 30
0.0000
  0
VERTEX
  8
21
 10
229.4036
 20
-198.9201
 30
0.0000
 42
1.0000
  0
VERTEX
  8
21
 10
229.2937
 20
-198.9836
 30
0.0000
  0
VERTEX
  8
21
 10
231.0437
 20
-202.0147
 30
0.0000
 42
1.0000
  0
SEQEND
  8
0
  0
POLYLINE
  8
21
 66
1
 10
0.0000
 20
0.0000
 30
0.0000
 40
0.0000
 41
0.0000
 70
1
  0
VERTEX
  8
21
 10
233.8416
 20
-199.4237
 30
0.0000
  0
VERTEX
  8
21
 10
233.5488
 20
-200.5165
 30
0.0000
 42
1.0000
  0
VERTEX
  8
21
 10
233.6715
 20
-200.5494
 30
0.0000
  0
VERTEX
  8
21
 10
233.9643
 20
-199.4566
 30
0.0000
 42
1.0000
  0
SEQEND
  8
0
  0
LINE
  8
21
 10
230.7871
 20
-201.6432
 30
0.0000
 11
232.8645
 21
-197.4416
 31
0.0000
  0
LINE
  8
21
 10
229.4871
 20
-199.3916
 30
0.0000
 11
234.1645
 21
-199.6932
 31
0.0000
  0
CIRCLE
  8
21
 10
231.8258
 20
-199.5424
 30
0.0000
 40
1.4903
  0
CIRCLE
  8
21
 10
231.8258
 20
-199.5424
 30
0.0000
 40
1.5903
  0
CIRCLE
  8
21
 10
231.8258
 20
-199.5424
 30
0.0000
 40
1.2842
  0
CIRCLE
  8
21
 10
231.8258
 20
-199.5424
 30
0.0000
 40
1.3842
  0
POLYLINE
  8
21
 66
1
 10
0.0000
 20
0.0000
 30
0.0000
 40
0.0000
 41
0.0000
 70
1
  0
VERTEX
  8
21
 10
224.5731
 20
-200.4496
 30
0.0000
  0
VERTEX
  8
21
 10
228.1471
 20
-199.4919
 30
0.0000
 42
1.0000
  0
VERTEX
  8
21
 10
228.1142
 20
-199.3693
 30
0.0000
  0
VERTEX
  8
21
 10
224.5403
 20
-200.3269
 30
0.0000
 42
1.0000
  0
SEQEND
  8
0
  0
POLYLINE
  8
21
 66
1
 10
0.0000
 20
0.0000
 30
0.0000
 40
0.0000
 41
0.0000
 70
1
  0
VERTEX
  8
21
 10
228.0693
 20
-199.4470
 30
0.0000
  0
VERTEX
  8
21
 10
228.7681
 20
-202.0550
 30
0.0000
 42
1.0000
  0
VERTEX
  8
21
 10
228.8908
 20
-202.0222
 30
0.0000
  0
VERTEX
  8
21
 10
228.1920
 20
-199.4142
 30
0.0000
 42
1.0000
  0
SEQEND
  8
0
  0
POLYLINE
  8
21
 66
1
 10
0.0000
 20
0.0000
 30
0.0000
 40
0.0000
 41
0.0000
 70
1
  0
VERTEX
  8
21
 10
228.7681
 20
-202.0550
 30
0.0000
  0
VERTEX
  8
21
 10
228.9752
 20
-202.8278
 30
0.0000
 42
1.0000
  0
VERTEX
  8
21
 10
229.0978
 20
-202.7949
 30
0.0000
  0
VERTEX
  8
21
 10
228.8908
 20
-202.0222
 30
0.0000
 42
1.0000
  0
SEQEND
  8
0
  0
POLYLINE
  8
21
 66
1
 10
0.0000
 20
0.0000
 30
0.0000
 40
0.0000
 41
0.0000
 70
1
  0
VERTEX
  8
21
 10
229.0201
 20
-202.7500
 30
0.0000
  0
VERTEX
  8
21
 10
228.2473
 20
-202.9571
 30
0.0000
 42
1.0000
  0
VERTEX
  8
21
 10
228.2802
 20
-203.0797
 30
0.0000
  0
VERTEX
  8
21
 10
229.0529
 20
-202.8727
 30
0.0000
 42
1.0000
  0
SEQEND
  8
0
  0
POLYLINE
  8
21
 66
1
 10
0.0000
 20
0.0000
 30
0.0000
 40
0.0000
 41
0.0000
 70
1
  0
VERTEX
  8
21
 10
228.2473
 20
-202.9571
 30
0.0000
  0
VERTEX
  8
21
 10
225.4461
 20
-203.7076
 30
0.0000
 42
1.0000
  0
VERTEX
  8
21
 10
225.4790
 20
-203.8303
 30
0.0000
  0
VERTEX
  8
21
 10
228.2802
 20
-203.0797
 30
0.0000
 42
1.0000
  0
SEQEND
  8
0
  0
POLYLINE
  8
21
 66
1
 10
0.0000
 20
0.0000
 30
0.0000
 40
0.0000
 41
0.0000
 70
1
  0
VERTEX
  8
21
 10
225.5239
 20
-203.7525
 30
0.0000
  0
VERTEX
  8
21
 10
224.6180
 20
-200.3718
 30
0.0000
 42
1.0000
  0
VERTEX
  8
21
 10
224.4954
 20
-200.4047
 30
0.0000
  0
VERTEX
  8
21
 10
225.4012
 20
-203.7854
 30
0.0000
 42
1.0000
  0
SEQEND
  8
0
  0
POLYLINE
  8
21
 66
1
 10
0.0000
 20
0.0000
 30
0.0000
 40
0.0000
 41
0.0000
 70
1
  0
VERTEX
  8
21
 10
228.7744
 20
-202.0069
 30
0.0000
  0
VERTEX
  8
21
 10
228.2088
 20
-202.9867
 30
0.0000
 42
1.0000
  0
VERTEX
  8
21
 10
228.3187
 20
-203.0502
 30
0.0000
  0
VERTEX
  8
21
 10
228.8844
 20
-202.0704
 30
0.0000
 42
1.0000
  0
SEQEND
  8
0
  0
LINE
  8
21
 10
225.2495
 20
-203.3602
 30
0.0000
 11
228.3437
 21
-199.8394
 31
0.0000
  0
LINE
  8
21
 10
224.5766
 20
-200.8488
 30
0.0000
 11
229.0166
 21
-202.3508
 31
0.0000
  0
CIRCLE
  8
21
 10
226.7966
 20
-201.5998
 30
0.0000
 40
1.4903
  0
CIRCLE
  8
21
 10
226.7966
 20
-201.5998
 30
0.0000
 40
1.5903
  0
CIRCLE
  8
21
 10
226.7966
 20
-201.5998
 30
0.0000
 40
1.2842
  0
CIRCLE
  8
21
 10
226.7966
 20
-201.5998
 30
0.0000
 40
1.3842
  0
POLYLINE
  8
21
 66
1
 10
0.0000
 20
0.0000
 30
0.0000
 40
0.0000
 41
0.0000
 70
1
  0
VERTEX
  8
21
 10
219.6380
 20
-200.6245
 30
0.0000
  0
VERTEX
  8
21
 10
223.3380
 20
-200.6245
 30
0.0000
 42
1.0000
  0
VERTEX
  8
21
 10
223.3380
 20
-200.4975
 30
0.0000
  0
VERTEX
  8
21
 10
219.6380
 20
-200.4975
 30
0.0000
 42
1.0000
  0
SEQEND
  8
0
  0
POLYLINE
  8
21
 66
1
 10
0.0000
 20
0.0000
 30
0.0000
 40
0.0000
 41
0.0000
 70
1
  0
VERTEX
  8
21
 10
223.2745
 20
-200.5610
 30
0.0000
  0
VERTEX
  8
21
 10
223.2745
 20
-203.2610
 30
0.0000
 42
1.0000
  0
VERTEX
  8
21
 10
223.4015
 20
-203.2610
 30
0.0000
  0
VERTEX
  8
21
 10
223.4015
 20
-200.5610
 30
0.0000
 42
1.0000
  0
SEQEND
  8
0
  0
POLYLINE
  8
21
 66
1
 10
0.0000
 20
0.0000
 30
0.0000
 40
0.0000
 41
0.0000
 70
1
  0
VERTEX
  8
21
 10
223.2745
 20
-203.2610
 30
0.0000
  0
VERTEX
  8
21
 10
223.2745
 20
-204.0610
 30
0.0000
 42
1.0000
  0
VERTEX
  8
21
 10
223.4015
 20
-204.0610
 30
0.0000
  0
VERTEX
  8
21
 10
223.4015
 20
-203.2610
 30
0.0000
 42
1.0000
  0
SEQEND
  8
0
  0
POLYLINE
  8
21
 66
1
 10
0.0000
 20
0.0000
 30
0.0000
 40
0.0000
 41
0.0000
 70
1
  0
VERTEX
  8
21
 10
223.3380
 20
-203.9975
 30
0.0000
  0
VERTEX
  8
21
 10
222.5380
 20
-203.9975
 30
0.0000
 42
1.0000
  0
VERTEX
  8
21
 10
222.5380
 20
-204.1245
 30
0.0000
  0
VERTEX
  8
21
 10
223.3380
 20
-204.1245
 30
0.0000
 42
1.0000
  0
SEQEND
  8
0
  0
POLYLINE
  8
21
 66
1
 10
0.0000
 20
0.0000
 30
0.0000
 40
0.0000
 41
0.0000
 70
1
  0
VERTEX
  8
21
 10
222.5380
 20
-203.9975
 30
0.0000
  0
VERTEX
  8
21
 10
219.6380
 20
-203.9975
 30
0.0000
 42
1.0000
  0
VERTEX
  8
21
 10
219.6380
 20
-204.1245
 30
0.0000
  0
VERTEX
  8
21
 10
222.5380
 20
-204.1245
 30
0.0000
 42
1.0000
  0
SEQEND
  8
0
  0
POLYLINE
  8
21
 66
1
 10
0.0000
 20
0.0000
 30
0.0000
 40
0.0000
 41
0.0000
 70
1
  0
VERTEX
  8
21
 10
219.7015
 20
-204.0610
 30
0.0000
  0
VERTEX
  8
21
 10
219.7015
 20
-200.5610
 30
0.0000
 42
1.0000
  0
VERTEX
  8
21
 10
219.5745
 20
-200.5610
 30
0.0000
  0
VERTEX
  8
21
 10
219.5745
 20
-204.0610
 30
0.0000
 42
1.0000
  0
SEQEND
  8
0
  0
POLYLINE
  8
21
 66
1
 10
0.0000
 20
0.0000
 30
0.0000
 40
0.0000
 41
0.0000
 70
1
  0
VERTEX
  8
21
 10
223.2931
 20
-203.2161
 30
0.0000
  0
VERTEX
  8
21
 10
222.4931
 20
-204.0161
 30
0.0000
 42
1.0000
  0
VERTEX
  8
21
 10
222.5829
 20
-204.1059
 30
0.0000
  0
VERTEX
  8
21
 10
223.3829
 20
-203.3059
 30
0.0000
 42
1.0000
  0
SEQEND
  8
0
  0
LINE
  8
21
 10
219.5380
 20
-203.6110
 30
0.0000
 11
223.4380
 21
-201.0110
 31
0.0000
  0
LINE
  8
21
 10
219.5380
 20
-201.0110
 30
0.0000
 11
223.4380
 21
-203.6110
 31
0.0000
  0
CIRCLE
  8
21
 10
221.4880
 20
-202.3110
 30
0.0000
 40
1.4903
  0
CIRCLE
  8
21
 10
221.4880
 20
-202.3110
 30
0.0000
 40
1.5903
  0
CIRCLE
  8
21
 10
221.4880
 20
-202.3110
 30
0.0000
 40
1.2842
  0
CIRCLE
  8
21
 10
221.4880
 20
-202.3110
 30
0.0000
 40
1.3842
  0
POLYLINE
  8
21
 66
1
 10
0.0000
 20
0.0000
 30
0.0000
 40
0.0000
 41
0.0000
 70
1
  0
VERTEX
  8
21
 10
214.8797
 20
-199.5173
 30
0.0000
  0
VERTEX
  8
21
 10
218.4537
 20
-200.4750
 30
0.0000
 42
1.0000
  0
VERTEX
  8
21
 10
218.4865
 20
-200.3523
 30
0.0000
  0
VERTEX
  8
21
 10
214.9126
 20
-199.3947
 30
0.0000
 42
1.0000
  0
SEQEND
  8
0
  0
POLYLINE
  8
21
 66
1
 10
0.0000
 20
0.0000
 30
0.0000
 40
0.0000
 41
0.0000
 70
1
  0
VERTEX
  8
21
 10
218.4088
 20
-200.3972
 30
0.0000
  0
VERTEX
  8
21
 10
217.7099
 20
-203.0052
 30
0.0000
 42
1.0000
  0
VERTEX
  8
21
 10
217.8326
 20
-203.0381
 30
0.0000
  0
VERTEX
  8
21
 10
218.5314
 20
-200.4301
 30
0.0000
 42
1.0000
  0
SEQEND
  8
0
  0
POLYLINE
  8
21
 66
1
 10
0.0000
 20
0.0000
 30
0.0000
 40
0.0000
 41
0.0000
 70
1
  0
VERTEX
  8
21
 10
217.7099
 20
-203.0052
 30
0.0000
  0
VERTEX
  8
21
 10
217.5029
 20
-203.7779
 30
0.0000
 42
1.0000
  0
VERTEX
  8
21
 10
217.6256
 20
-203.8108
 30
0.0000
  0
VERTEX
  8
21
 10
217.8326
 20
-203.0381
 30
0.0000
 42
1.0000
  0
SEQEND
  8
0
  0
POLYLINE
  8
21
 66
1
 10
0.0000
 20
0.0000
 30
0.0000
 40
0.0000
 41
0.0000
 70
1
  0
VERTEX
  8
21
 10
217.5807
 20
-203.7330
 30
0.0000
  0
VERTEX
  8
21
 10
216.8079
 20
-203.5260
 30
0.0000
 42
1.0000
  0
VERTEX
  8
21
 10
216.7751
 20
-203.6487
 30
0.0000
  0
VERTEX
  8
21
 10
217.5478
 20
-203.8557
 30
0.0000
 42
1.0000
  0
SEQEND
  8
0
  0
POLYLINE
  8
21
 66
1
 10
0.0000
 20
0.0000
 30
0.0000
 40
0.0000
 41
0.0000
 70
1
  0
VERTEX
  8
21
 10
216.8079
 20
-203.5260
 30
0.0000
  0
VERTEX
  8
21
 10
214.0067
 20
-202.7754
 30
0.0000
 42
1.0000
  0
VERTEX
  8
21
 10
213.9739
 20
-202.8981
 30
0.0000
  0
VERTEX
  8
21
 10
216.7751
 20
-203.6487
 30
0.0000
 42
1.0000
  0
SEQEND
  8
0
  0
POLYLINE
  8
21
 66
1
 10
0.0000
 20
0.0000
 30
0.0000
 40
0.0000
 41
0.0000
 70
1
  0
VERTEX
  8
21
 10
214.0516
 20
-202.8532
 30
0.0000
  0
VERTEX
  8
21
 10
214.9575
 20
-199.4724
 30
0.0000
 42
1.0000
  0
VERTEX
  8
21
 10
214.8348
 20
-199.4396
 30
0.0000
  0
VERTEX
  8
21
 10
213.9290
 20
-202.8203
 30
0.0000
 42
1.0000
  0
SEQEND
  8
0
  0
POLYLINE
  8
21
 66
1
 10
0.0000
 20
0.0000
 30
0.0000
 40
0.0000
 41
0.0000
 70
1
  0
VERTEX
  8
21
 10
217.7395
 20
-202.9667
 30
0.0000
  0
VERTEX
  8
21
 10
216.7597
 20
-203.5323
 30
0.0000
 42
1.0000
  0
VERTEX
  8
21
 10
216.8232
 20
-203.6423
 30
0.0000
  0
VERTEX
  8
21
 10
217.8030
 20
-203.0766
 30
0.0000
 42
1.0000
  0
SEQEND
  8
0
  0
LINE
  8
21
 10
214.0102
 20
-202.3762
 30
0.0000
 11
218.4502
 21
-200.8742
 31
0.0000
  0
LINE
  8
21
 10
214.6831
 20
-199.8648
 30
0.0000
 11
217.7773
 21
-203.3856
 31
0.0000
  0
CIRCLE
  8
21
 10
216.2302
 20
-201.6252
 30
0.0000
 40
1.4903
  0
CIRCLE
  8
21
 10
216.2302
 20
-201.6252
 30
0.0000
 40
1.5903
  0
CIRCLE
  8
21
 10
216.2302
 20
-201.6252
 30
0.0000
 40
1.2842
  0
CIRCLE
  8
21
 10
216.2302
 20
-201.6252
 30
0.0000
 40
1.3842
  0
POLYLINE
  8
21
 66
1
 10
0.0000
 20
0.0000
 30
0.0000
 40
0.0000
 41
0.0000
 70
1
  0
VERTEX
  8
21
 10
210.3913
 20
-197.1568
 30
0.0000
  0
VERTEX
  8
21
 10
213.5956
 20
-199.0068
 30
0.0000
 42
1.0000
  0
VERTEX
  8
21
 10
213.6591
 20
-198.8969
 30
0.0000
  0
VERTEX
  8
21
 10
210.4548
 20
-197.0469
 30
0.0000
 42
1.0000
  0
SEQEND
  8
0
  0
POLYLINE
  8
21
 66
1
 10
0.0000
 20
0.0000
 30
0.0000
 40
0.0000
 41
0.0000
 70
1
  0
VERTEX
  8
21
 10
213.5724
 20
-198.9201
 30
0.0000
  0
VERTEX
  8
21
 10
212.2224
 20
-201.2584
 30
0.0000
 42
1.0000
  0
VERTEX
  8
21
 10
212.3323
 20
-201.3219
 30
0.0000
  0
VERTEX
  8
21
 10
213.6823
 20
-198.9836
 30
0.0000
 42
1.0000
  0
SEQEND
  8
0
  0
POLYLINE
  8
21
 66
1
 10
0.0000
 20
0.0000
 30
0.0000
 40
0.0000
 41
0.0000
 70
1
  0
VERTEX
  8
21
 10
212.2224
 20
-201.2584
 30
0.0000
  0
VERTEX
  8
21
 10
211.8224
 20
-201.9512
 30
0.0000
 42
1.0000
  0
VERTEX
  8
21
 10
211.9323
 20
-202.0147
 30
0.0000
  0
VERTEX
  8
21
 10
212.3323
 20
-201.3219
 30
0.0000
 42
1.0000
  0
SEQEND
  8
0
  0
POLYLINE
  8
21
 66
1
 10
0.0000
 20
0.0000
 30
0.0000
 40
0.0000
 41
0.0000
 70
1
  0
VERTEX
  8
21
 10
211.9091
 20
-201.9280
 30
0.0000
  0
VERTEX
  8
21
 10
211.2163
 20
-201.5280
 30
0.0000
 42
1.0000
  0
VERTEX
  8
21
 10
211.1528
 20
-201.6379
 30
0.0000
  0
VERTEX
  8
21
 10
211.8456
 20
-202.0379
 30
0.0000
 42
1.0000
  0
SEQEND
  8
0
  0
POLYLINE
  8
21
 66
1
 10
0.0000
 20
0.0000
 30
0.0000
 40
0.0000
 41
0.0000
 70
1
  0
VERTEX
  8
21
 10
211.2163
 20
-201.5280
 30
0.0000
  0
VERTEX
  8
21
 10
208.7048
 20
-200.0780
 30
0.0000
 42
1.0000
  0
VERTEX
  8
21
 10
208.6413
 20
-200.1879
 30
0.0000
  0
VERTEX
  8
21
 10
211.1528
 20
-201.6379
 30
0.0000
 42
1.0000
  0
SEQEND
  8
0
  0
POLYLINE
  8
21
 66
1
 10
0.0000
 20
0.0000
 30
0.0000
 40
0.0000
 41
0.0000
 70
1
  0
VERTEX
  8
21
 10
208.7280
 20
-200.1647
 30
0.0000
  0
VERTEX
  8
21
 10
210.4780
 20
-197.1336
 30
0.0000
 42
1.0000
  0
VERTEX
  8
21
 10
210.3681
 20
-197.0701
 30
0.0000
  0
VERTEX
  8
21
 10
208.6181
 20
-200.1012
 30
0.0000
 42
1.0000
  0
SEQEND
  8
0
  0
POLYLINE
  8
21
 66
1
 10
0.0000
 20
0.0000
 30
0.0000
 40
0.0000
 41
0.0000
 70
1
  0
VERTEX
  8
21
 10
212.2609
 20
-201.2288
 30
0.0000
  0
VERTEX
  8
21
 10
211.1681
 20
-201.5216
 30
0.0000
 42
1.0000
  0
VERTEX
  8
21
 10
211.2010
 20
-201.6443
 30
0.0000
  0
VERTEX
  8
21
 10
212.2938
 20
-201.3515
 30
0.0000
 42
1.0000
  0
SEQEND
  8
0
  0
LINE
  8
21
 10
208.8115
 20
-199.6932
 30
0.0000
 11
213.4889
 21
-199.3916
 31
0.0000
  0
LINE
  8
21
 10
210.1115
 20
-197.4416
 30
0.0000
 11
212.1889
 21
-201.6432
 31
0.0000
  0
CIRCLE
  8
21
 10
211.1502
 20
-199.5424
 30
0.0000
 40
1.4903
  0
CIRCLE
  8
21
 10
211.1502
 20
-199.5424
 30
0.0000
 40
1.5903
  0
CIRCLE
  8
21
 10
211.1502
 20
-199.5424
 30
0.0000
 40
1.2842
  0
CIRCLE
  8
21
 10
211.1502
 20
-199.5424
 30
0.0000
 40
1.3842
  0
POLYLINE
  8
21
 66
1
 10
0.0000
 20
0.0000
 30
0.0000
 40
0.0000
 41
0.0000
 70
1
  0
VERTEX
  8
21
 10
206.8436
 20
-193.8413
 30
0.0000
  0
VERTEX
  8
21
 10
209.4599
 20
-196.4576
 30
0.0000
 42
1.0000
  0
VERTEX
  8
21
 10
209.5497
 20
-196.3678
 30
0.0000
  0
VERTEX
  8
21
 10
206.9334
 20
-193.7515
 30
0.0000
 42
1.0000
  0
SEQEND
  8
0
  0
POLYLINE
  8
21
 66
1
 10
0.0000
 20
0.0000
 30
0.0000
 40
0.0000
 41
0.0000
 70
1
  0
VERTEX
  8
21
 10
209.4599
 20
-196.3678
 30
0.0000
  0
VERTEX
  8
21
 10
207.5507
 20
-198.2770
 30
0.0000
 42
1.0000
  0
VERTEX
  8
21
 10
207.6405
 20
-198.3668
 30
0.0000
  0
VERTEX
  8
21
 10
209.5497
 20
-196.4576
 30
0.0000
 42
1.0000
  0
SEQEND
  8
0
  0
POLYLINE
  8
21
 66
1
 10
0.0000
 20
0.0000
 30
0.0000
 40
0.0000
 41
0.0000
 70
1
  0
VERTEX
  8
21
 10
207.5507
 20
-198.2770
 30
0.0000
  0
VERTEX
  8
21
 10
206.9850
 20
-198.8427
 30
0.0000
 42
1.0000
  0
VERTEX
  8
21
 10
207.0748
 20
-198.9325
 30
0.0000
  0
VERTEX
  8
21
 10
207.6405
 20
-198.3668
 30
0.0000
 42
1.0000
  0
SEQEND
  8
0
  0
POLYLINE
  8
21
 66
1
 10
0.0000
 20
0.0000
 30
0.0000
 40
0.0000
 41
0.0000
 70
1
  0
VERTEX
  8
21
 10
207.0748
 20
-198.8427
 30
0.0000
  0
VERTEX
  8
21
 10
206.5091
 20
-198.2770
 30
0.0000
 42
1.0000
  0
VERTEX
  8
21
 10
206.4193
 20
-198.3668
 30
0.0000
  0
VERTEX
  8
21
 10
206.9850
 20
-198.9325
 30
0.0000
 42
1.0000
  0
SEQEND
  8
0
  0
POLYLINE
  8
21
 66
1
 10
0.0000
 20
0.0000
 30
0.0000
 40
0.0000
 41
0.0000
 70
1
  0
VERTEX
  8
21
 10
206.5091
 20
-198.2770
 30
0.0000
  0
VERTEX
  8
21
 10
204.4585
 20
-196.2264
 30
0.0000
 42
1.0000
  0
VERTEX
  8
21
 10
204.3687
 20
-196.3162
 30
0.0000
  0
VERTEX
  8
21
 10
206.4193
 20
-198.3668
 30
0.0000
 42
1.0000
  0
SEQEND
  8
0
  0
POLYLINE
  8
21
 66
1
 10
0.0000
 20
0.0000
 30
0.0000
 40
0.0000
 41
0.0000
 70
1
  0
VERTEX
  8
21
 10
204.4585
 20
-196.3162
 30
0.0000
  0
VERTEX
  8
21
 10
206.9334
 20
-193.8413
 30
0.0000
 42
1.0000
  0
VERTEX
  8
21
 10
206.8436
 20
-193.7515
 30
0.0000
  0
VERTEX
  8
21
 10
204.3687
 20
-196.2264
 30
0.0000
 42
1.0000
  0
SEQEND
  8
0
  0
POLYLINE
  8
21
 66
1
 10
0.0000
 20
0.0000
 30
0.0000
 40
0.0000
 41
0.0000
 70
1
  0
VERTEX
  8
21
 10
207.5956
 20
-198.2584
 30
0.0000
  0
VERTEX
  8
21
 10
206.4642
 20
-198.2584
 30
0.0000
 42
1.0000
  0
VERTEX
  8
21
 10
206.4642
 20
-198.3854
 30
0.0000
  0
VERTEX
  8
21
 10
207.5956
 20
-198.3854
 30
0.0000
 42
1.0000
  0
SEQEND
  8
0
  0
LINE
  8
21
 10
204.6611
 20
-195.8824
 30
0.0000
 11
209.2573
 21
-196.8016
 31
0.0000
  0
LINE
  8
21
 10
206.4996
 20
-194.0439
 30
0.0000
 11
207.4188
 21
-198.6401
 31
0.0000
  0
CIRCLE
  8
21
 10
206.9592
 20
-196.3420
 30
0.0000
 40
1.4903
  0
CIRCLE
  8
21
 10
206.9592
 20
-196.3420
 30
0.0000
 40
1.5903
  0
CIRCLE
  8
21
 10
206.9592
 20
-196.3420
 30
0.0000
 40
1.2842
  0
CIRCLE
  8
21
 10
206.9592
 20
-196.3420
 30
0.0000
 40
1.3842
  0
POLYLINE
  8
21
 66
1
 10
0.0000
 20
0.0000
 30
0.0000
 40
0.0000
 41
0.0000
 70
1
  0
VERTEX
  8
21
 10
204.1674
 20
-189.6548
 30
0.0000
  0
VERTEX
  8
21
 10
206.0174
 20
-192.8591
 30
0.0000
 42
1.0000
  0
VERTEX
  8
21
 10
206.1273
 20
-192.7956
 30
0.0000
  0
VERTEX
  8
21
 10
204.2773
 20
-189.5913
 30
0.0000
 42
1.0000
  0
SEQEND
  8
0
  0
POLYLINE
  8
21
 66
1
 10
0.0000
 20
0.0000
 30
0.0000
 40
0.0000
 41
0.0000
 70
1
  0
VERTEX
  8
21
 10
206.0406
 20
-192.7724
 30
0.0000
  0
VERTEX
  8
21
 10
203.7023
 20
-194.1224
 30
0.0000
 42
1.0000
  0
VERTEX
  8
21
 10
203.7658
 20
-194.2323
 30
0.0000
  0
VERTEX
  8
21
 10
206.1041
 20
-192.8823
 30
0.0000
 42
1.0000
  0
SEQEND
  8
0
  0
POLYLINE
  8
21
 66
1
 10
0.0000
 20
0.0000
 30
0.0000
 40
0.0000
 41
0.0000
 70
1
  0
VERTEX
  8
21
 10
203.7023
 20
-194.1224
 30
0.0000
  0
VERTEX
  8
21
 10
203.0095
 20
-194.5224
 30
0.0000
 42
1.0000
  0
VERTEX
  8
21
 10
203.0730
 20
-194.6323
 30
0.0000
  0
VERTEX
  8
21
 10
203.7658
 20
-194.2323
 30
0.0000
 42
1.0000
  0
SEQEND
  8
0
  0
POLYLINE
  8
21
 66
1
 10
0.0000
 20
0.0000
 30
0.0000
 40
0.0000
 41
0.0000
 70
1
  0
VERTEX
  8
21
 10
203.0962
 20
-194.5456
 30
0.0000
  0
VERTEX
  8
21
 10
202.6962
 20
-193.8528
 30
0.0000
 42
1.0000
  0
VERTEX
  8
21
 10
202.5863
 20
-193.9163
 30
0.0000
  0
VERTEX
  8
21
 10
202.9863
 20
-194.6091
 30
0.0000
 42
1.0000
  0
SEQEND
  8
0
  0
POLYLINE
  8
21
 66
1
 10
0.0000
 20
0.0000
 30
0.0000
 40
0.0000
 41
0.0000
 70
1
  0
VERTEX
  8
21
 10
202.6962
 20
-193.8528
 30
0.0000
  0
VERTEX
  8
21
 10
201.2462
 20
-191.3413
 30
0.0000
 42
1.0000
  0
VERTEX
  8
21
 10
201.1363
 20
-191.4048
 30
0.0000
  0
VERTEX
  8
21
 10
202.5863
 20
-193.9163
 30
0.0000
 42
1.0000
  0
SEQEND
  8
0
  0
POLYLINE
  8
21
 66
1
 10
0.0000
 20
0.0000
 30
0.0000
 40
0.0000
 41
0.0000
 70
1
  0
VERTEX
  8
21
 10
201.2230
 20
-191.4280
 30
0.0000
  0
VERTEX
  8
21
 10
204.2541
 20
-189.6780
 30
0.0000
 42
1.0000
  0
VERTEX
  8
21
 10
204.1906
 20
-189.5681
 30
0.0000
  0
VERTEX
  8
21
 10
201.1595
 20
-191.3181
 30
0.0000
 42
1.0000
  0
SEQEND
  8
0
  0
POLYLINE
  8
21
 66
1
 10
0.0000
 20
0.0000
 30
0.0000
 40
0.0000
 41
0.0000
 70
1
  0
VERTEX
  8
21
 10
203.7505
 20
-194.1160
 30
0.0000
  0
VERTEX
  8
21
 10
202.6577
 20
-193.8232
 30
0.0000
 42
1.0000
  0
VERTEX
  8
21
 10
202.6248
 20
-193.9459
 30
0.0000
  0
VERTEX
  8
21
 10
203.7176
 20
-194.2387
 30
0.0000
 42
1.0000
  0
SEQEND
  8
0
  0
LINE
  8
21
 10
201.5310
 20
-191.0615
 30
0.0000
 11
205.7326
 21
-193.1389
 31
0.0000
  0
LINE
  8
21
 10
203.7826
 20
-189.7614
 30
0.0000
 11
203.4810
 21
-194.4389
 31
0.0000
  0
CIRCLE
  8
21
 10
203.6318
 20
-192.1002
 30
0.0000
 40
1.4903
  0
CIRCLE
  8
21
 10
203.6318
 20
-192.1002
 30
0.0000
 40
1.5903
  0
CIRCLE
  8
21
 10
203.6318
 20
-192.1002
 30
0.0000
 40
1.2842
  0
CIRCLE
  8
21
 10
203.6318
 20
-192.1002
 30
0.0000
 40
1.3842
  0
POLYLINE
  8
21
 66
1
 10
0.0000
 20
0.0000
 30
0.0000
 40
0.0000
 41
0.0000
 70
1
  0
VERTEX
  8
21
 10
202.6992
 20
-184.8983
 30
0.0000
  0
VERTEX
  8
21
 10
203.6568
 20
-188.4723
 30
0.0000
 42
1.0000
  0
VERTEX
  8
21
 10
203.7795
 20
-188.4394
 30
0.0000
  0
VERTEX
  8
21
 10
202.8219
 20
-184.8655
 30
0.0000
 42
1.0000
  0
SEQEND
  8
0
  0
POLYLINE
  8
21
 66
1
 10
0.0000
 20
0.0000
 30
0.0000
 40
0.0000
 41
0.0000
 70
1
  0
VERTEX
  8
21
 10
203.7017
 20
-188.3945
 30
0.0000
  0
VERTEX
  8
21
 10
201.0937
 20
-189.0933
 30
0.0000
 42
1.0000
  0
VERTEX
  8
21
 10
201.1266
 20
-189.2160
 30
0.0000
  0
VERTEX
  8
21
 10
203.7346
 20
-188.5172
 30
0.0000
 42
1.0000
  0
SEQEND
  8
0
  0
POLYLINE
  8
21
 66
1
 10
0.0000
 20
0.0000
 30
0.0000
 40
0.0000
 41
0.0000
 70
1
  0
VERTEX
  8
21
 10
201.0937
 20
-189.0933
 30
0.0000
  0
VERTEX
  8
21
 10
200.3210
 20
-189.3004
 30
0.0000
 42
1.0000
  0
VERTEX
  8
21
 10
200.3539
 20
-189.4230
 30
0.0000
  0
VERTEX
  8
21
 10
201.1266
 20
-189.2160
 30
0.0000
 42
1.0000
  0
SEQEND
  8
0
  0
POLYLINE
  8
21
 66
1
 10
0.0000
 20
0.0000
 30
0.0000
 40
0.0000
 41
0.0000
 70
1
  0
VERTEX
  8
21
 10
200.3988
 20
-189.3453
 30
0.0000
  0
VERTEX
  8
21
 10
200.1917
 20
-188.5725
 30
0.0000
 42
1.0000
  0
VERTEX
  8
21
 10
200.0691
 20
-188.6054
 30
0.0000
  0
VERTEX
  8
21
 10
200.2761
 20
-189.3781
 30
0.0000
 42
1.0000
  0
SEQEND
  8
0
  0
POLYLINE
  8
21
 66
1
 10
0.0000
 20
0.0000
 30
0.0000
 40
0.0000
 41
0.0000
 70
1
  0
VERTEX
  8
21
 10
200.1917
 20
-188.5725
 30
0.0000
  0
VERTEX
  8
21
 10
199.4411
 20
-185.7713
 30
0.0000
 42
1.0000
  0
VERTEX
  8
21
 10
199.3185
 20
-185.8042
 30
0.0000
  0
VERTEX
  8
21
 10
200.0691
 20
-188.6054
 30
0.0000
 42
1.0000
  0
SEQEND
  8
0
  0
POLYLINE
  8
21
 66
1
 10
0.0000
 20
0.0000
 30
0.0000
 40
0.0000
 41
0.0000
 70
1
  0
VERTEX
  8
21
 10
199.3962
 20
-185.8491
 30
0.0000
  0
VERTEX
  8
21
 10
202.7770
 20
-184.9432
 30
0.0000
 42
1.0000
  0
VERTEX
  8
21
 10
202.7441
 20
-184.8206
 30
0.0000
  0
VERTEX
  8
21
 10
199.3634
 20
-185.7264
 30
0.0000
 42
1.0000
  0
SEQEND
  8
0
  0
POLYLINE
  8
21
 66
1
 10
0.0000
 20
0.0000
 30
0.0000
 40
0.0000
 41
0.0000
 70
1
  0
VERTEX
  8
21
 10
201.1419
 20
-189.0996
 30
0.0000
  0
VERTEX
  8
21
 10
200.1621
 20
-188.5340
 30
0.0000
 42
1.0000
  0
VERTEX
  8
21
 10
200.0986
 20
-188.6439
 30
0.0000
  0
VERTEX
  8
21
 10
201.0784
 20
-189.2096
 30
0.0000
 42
1.0000
  0
SEQEND
  8
0
  0
LINE
  8
21
 10
199.7886
 20
-185.5747
 30
0.0000
 11
203.3094
 21
-188.6689
 31
0.0000
  0
LINE
  8
21
 10
202.3000
 20
-184.9018
 30
0.0000
 11
200.7980
 21
-189.3418
 31
0.0000
  0
CIRCLE
  8
21
 10
201.5490
 20
-187.1218
 30
0.0000
 40
1.4903
  0
CIRCLE
  8
21
 10
201.5490
 20
-187.1218
 30
0.0000
 40
1.5903
  0
CIRCLE
  8
21
 10
201.5490
 20
-187.1218
 30
0.0000
 40
1.2842
  0
CIRCLE
  8
21
 10
201.5490
 20
-187.1218
 30
0.0000
 40
1.3842
  0
POLYLINE
  8
21
 66
1
 10
0.0000
 20
0.0000
 30
0.0000
 40
0.0000
 41
0.0000
 70
1
  0
VERTEX
  8
21
 10
202.4735
 20
-179.7854
 30
0.0000
  0
VERTEX
  8
21
 10
202.4735
 20
-183.4854
 30
0.0000
 42
1.0000
  0
VERTEX
  8
21
 10
202.6005
 20
-183.4854
 30
0.0000
  0
VERTEX
  8
21
 10
202.6005
 20
-179.7854
 30
0.0000
 42
1.0000
  0
SEQEND
  8
0
  0
POLYLINE
  8
21
 66
1
 10
0.0000
 20
0.0000
 30
0.0000
 40
0.0000
 41
0.0000
 70
1
  0
VERTEX
  8
21
 10
202.5370
 20
-183.4219
 30
0.0000
  0
VERTEX
  8
21
 10
199.8370
 20
-183.4219
 30
0.0000
 42
1.0000
  0
VERTEX
  8
21
 10
199.8370
 20
-183.5489
 30
0.0000
  0
VERTEX
  8
21
 10
202.5370
 20
-183.5489
 30
0.0000
 42
1.0000
  0
SEQEND
  8
0
  0
POLYLINE
  8
21
 66
1
 10
0.0000
 20
0.0000
 30
0.0000
 40
0.0000
 41
0.0000
 70
1
  0
VERTEX
  8
21
 10
199.8370
 20
-183.4219
 30
0.0000
  0
VERTEX
  8
21
 10
199.0370
 20
-183.4219
 30
0.0000
 42
1.0000
  0
VERTEX
  8
21
 10
199.0370
 20
-183.5489
 30
0.0000
  0
VERTEX
  8
21
 10
199.8370
 20
-183.5489
 30
0.0000
 42
1.0000
  0
SEQEND
  8
0
  0
POLYLINE
  8
21
 66
1
 10
0.0000
 20
0.0000
 30
0.0000
 40
0.0000
 41
0.0000
 70
1
  0
VERTEX
  8
21
 10
199.1005
 20
-183.4854
 30
0.0000
  0
VERTEX
  8
21
 10
199.1005
 20
-182.6854
 30
0.0000
 42
1.0000
  0
VERTEX
  8
21
 10
198.9735
 20
-182.6854
 30
0.0000
  0
VERTEX
  8
21
 10
198.9735
 20
-183.4854
 30
0.0000
 42
1.0000
  0
SEQEND
  8
0
  0
POLYLINE
  8
21
 66
1
 10
0.0000
 20
0.0000
 30
0.0000
 40
0.0000
 41
0.0000
 70
1
  0
VERTEX
  8
21
 10
199.1005
 20
-182.6854
 30
0.0000
  0
VERTEX
  8
21
 10
199.1005
 20
-179.7854
 30
0.0000
 42
1.0000
  0
VERTEX
  8
21
 10
198.9735
 20
-179.7854
 30
0.0000
  0
VERTEX
  8
21
 10
198.9735
 20
-182.6854
 30
0.0000
 42
1.0000
  0
SEQEND
  8
0
  0
POLYLINE
  8
21
 66
1
 10
0.0000
 20
0.0000
 30
0.0000
 40
0.0000
 41
0.0000
 70
1
  0
VERTEX
  8
21
 10
199.0370
 20
-179.8489
 30
0.0000
  0
VERTEX
  8
21
 10
202.5370
 20
-179.8489
 30
0.0000
 42
1.0000
  0
VERTEX
  8
21
 10
202.5370
 20
-179.7219
 30
0.0000
  0
VERTEX
  8
21
 10
199.0370
 20
-179.7219
 30
0.0000
 42
1.0000
  0
SEQEND
  8
0
  0
POLYLINE
  8
21
 66
1
 10
0.0000
 20
0.0000
 30
0.0000
 40
0.0000
 41
0.0000
 70
1
  0
VERTEX
  8
21
 10
199.8819
 20
-183.4405
 30
0.0000
  0
VERTEX
  8
21
 10
199.0819
 20
-182.6405
 30
0.0000
 42
1.0000
  0
VERTEX
  8
21
 10
198.9921
 20
-182.7303
 30
0.0000
  0
VERTEX
  8
21
 10
199.7921
 20
-183.5303
 30
0.0000
 42
1.0000
  0
SEQEND
  8
0
  0
LINE
  8
21
 10
199.4870
 20
-179.6854
 30
0.0000
 11
202.0870
 21
-183.5854
 31
0.0000
  0
LINE
  8
21
 10
202.0870
 20
-179.6854
 30
0.0000
 11
199.4870
 21
-183.5854
 31
0.0000
  0
CIRCLE
  8
21
 10
200.7870
 20
-181.6354
 30
0.0000
 40
1.4903
  0
CIRCLE
  8
21
 10
200.7870
 20
-181.6354
 30
0.0000
 40
1.5903
  0
CIRCLE
  8
21
 10
200.7870
 20
-181.6354
 30
0.0000
 40
1.2842
  0
CIRCLE
  8
21
 10
200.7870
 20
-181.6354
 30
0.0000
 40
1.3842
  0
POLYLINE
  8
21
 66
1
 10
0.0000
 20
0.0000
 30
0.0000
 40
0.0000
 41
0.0000
 70
1
  0
VERTEX
  8
21
 10
203.6314
 20
-174.7985
 30
0.0000
  0
VERTEX
  8
21
 10
202.6738
 20
-178.3725
 30
0.0000
 42
1.0000
  0
VERTEX
  8
21
 10
202.7965
 20
-178.4053
 30
0.0000
  0
VERTEX
  8
21
 10
203.7541
 20
-174.8314
 30
0.0000
 42
1.0000
  0
SEQEND
  8
0
  0
POLYLINE
  8
21
 66
1
 10
0.0000
 20
0.0000
 30
0.0000
 40
0.0000
 41
0.0000
 70
1
  0
VERTEX
  8
21
 10
202.7516
 20
-178.3276
 30
0.0000
  0
VERTEX
  8
21
 10
200.1436
 20
-177.6287
 30
0.0000
 42
1.0000
  0
VERTEX
  8
21
 10
200.1107
 20
-177.7514
 30
0.0000
  0
VERTEX
  8
21
 10
202.7187
 20
-178.4502
 30
0.0000
 42
1.0000
  0
SEQEND
  8
0
  0
POLYLINE
  8
21
 66
1
 10
0.0000
 20
0.0000
 30
0.0000
 40
0.0000
 41
0.0000
 70
1
  0
VERTEX
  8
21
 10
200.1436
 20
-177.6287
 30
0.0000
  0
VERTEX
  8
21
 10
199.3708
 20
-177.4217
 30
0.0000
 42
1.0000
  0
VERTEX
  8
21
 10
199.3380
 20
-177.5444
 30
0.0000
  0
VERTEX
  8
21
 10
200.1107
 20
-177.7514
 30
0.0000
 42
1.0000
  0
SEQEND
  8
0
  0
POLYLINE
  8
21
 66
1
 10
0.0000
 20
0.0000
 30
0.0000
 40
0.0000
 41
0.0000
 70
1
  0
VERTEX
  8
21
 10
199.4157
 20
-177.4995
 30
0.0000
  0
VERTEX
  8
21
 10
199.6228
 20
-176.7267
 30
0.0000
 42
1.0000
  0
VERTEX
  8
21
 10
199.5001
 20
-176.6939
 30
0.0000
  0
VERTEX
  8
21
 10
199.2931
 20
-177.4666
 30
0.0000
 42
1.0000
  0
SEQEND
  8
0
  0
POLYLINE
  8
21
 66
1
 10
0.0000
 20
0.0000
 30
0.0000
 40
0.0000
 41
0.0000
 70
1
  0
VERTEX
  8
21
 10
199.6228
 20
-176.7267
 30
0.0000
  0
VERTEX
  8
21
 10
200.3734
 20
-173.9255
 30
0.0000
 42
1.0000
  0
VERTEX
  8
21
 10
200.2507
 20
-173.8927
 30
0.0000
  0
VERTEX
  8
21
 10
199.5001
 20
-176.6939
 30
0.0000
 42
1.0000
  0
SEQEND
  8
0
  0
POLYLINE
  8
21
 66
1
 10
0.0000
 20
0.0000
 30
0.0000
 40
0.0000
 41
0.0000
 70
1
  0
VERTEX
  8
21
 10
200.2956
 20
-173.9704
 30
0.0000
  0
VERTEX
  8
21
 10
203.6763
 20
-174.8763
 30
0.0000
 42
1.0000
  0
VERTEX
  8
21
 10
203.7092
 20
-174.7536
 30
0.0000
  0
VERTEX
  8
21
 10
200.3285
 20
-173.8478
 30
0.0000
 42
1.0000
  0
SEQEND
  8
0
  0
POLYLINE
  8
21
 66
1
 10
0.0000
 20
0.0000
 30
0.0000
 40
0.0000
 41
0.0000
 70
1
  0
VERTEX
  8
21
 10
200.1821
 20
-177.6583
 30
0.0000
  0
VERTEX
  8
21
 10
199.6165
 20
-176.6785
 30
0.0000
 42
1.0000
  0
VERTEX
  8
21
 10
199.5065
 20
-176.7420
 30
0.0000
  0
VERTEX
  8
21
 10
200.0722
 20
-177.7218
 30
0.0000
 42
1.0000
  0
SEQEND
  8
0
  0
LINE
  8
21
 10
200.7726
 20
-173.9290
 30
0.0000
 11
202.2746
 21
-178.3690
 31
0.0000
  0
LINE
  8
21
 10
203.2840
 20
-174.6019
 30
0.0000
 11
199.7632
 21
-177.6961
 31
0.0000
  0
CIRCLE
  8
21
 10
201.5236
 20
-176.1490
 30
0.0000
 40
1.4903
  0
CIRCLE
  8
21
 10
201.5236
 20
-176.1490
 30
0.0000
 40
1.5903
  0
CIRCLE
  8
21
 10
201.5236
 20
-176.1490
 30
0.0000
 40
1.2842
  0
CIRCLE
  8
21
 10
201.5236
 20
-176.1490
 30
0.0000
 40
1.3842
  0
POLYLINE
  8
21
 66
1
 10
0.0000
 20
0.0000
 30
0.0000
 40
0.0000
 41
0.0000
 70
1
  0
VERTEX
  8
21
 10
206.0428
 20
-170.3101
 30
0.0000
  0
VERTEX
  8
21
 10
204.1928
 20
-173.5144
 30
0.0000
 42
1.0000
  0
VERTEX
  8
21
 10
204.3027
 20
-173.5779
 30
0.0000
  0
VERTEX
  8
21
 10
206.1527
 20
-170.3736
 30
0.0000
 42
1.0000
  0
SEQEND
  8
0
  0
POLYLINE
  8
21
 66
1
 10
0.0000
 20
0.0000
 30
0.0000
 40
0.0000
 41
0.0000
 70
1
  0
VERTEX
  8
21
 10
204.2795
 20
-173.4912
 30
0.0000
  0
VERTEX
  8
21
 10
201.9412
 20
-172.1412
 30
0.0000
 42
1.0000
  0
VERTEX
  8
21
 10
201.8777
 20
-172.2511
 30
0.0000
  0
VERTEX
  8
21
 10
204.2160
 20
-173.6011
 30
0.0000
 42
1.0000
  0
SEQEND
  8
0
  0
POLYLINE
  8
21
 66
1
 10
0.0000
 20
0.0000
 30
0.0000
 40
0.0000
 41
0.0000
 70
1
  0
VERTEX
  8
21
 10
201.9412
 20
-172.1412
 30
0.0000
  0
VERTEX
  8
21
 10
201.2484
 20
-171.7412
 30
0.0000
 42
1.0000
  0
VERTEX
  8
21
 10
201.1849
 20
-171.8511
 30
0.0000
  0
VERTEX
  8
21
 10
201.8777
 20
-172.2511
 30
0.0000
 42
1.0000
  0
SEQEND
  8
0
  0
POLYLINE
  8
21
 66
1
 10
0.0000
 20
0.0000
 30
0.0000
 40
0.0000
 41
0.0000
 70
1
  0
VERTEX
  8
21
 10
201.2716
 20
-171.8279
 30
0.0000
  0
VERTEX
  8
21
 10
201.6716
 20
-171.1351
 30
0.0000
 42
1.0000
  0
VERTEX
  8
21
 10
201.5617
 20
-171.0716
 30
0.0000
  0
VERTEX
  8
21
 10
201.1617
 20
-171.7644
 30
0.0000
 42
1.0000
  0
SEQEND
  8
0
  0
POLYLINE
  8
21
 66
1
 10
0.0000
 20
0.0000
 30
0.0000
 40
0.0000
 41
0.0000
 70
1
  0
VERTEX
  8
21
 10
201.6716
 20
-171.1351
 30
0.0000
  0
VERTEX
  8
21
 10
203.1216
 20
-168.6236
 30
0.0000
 42
1.0000
  0
VERTEX
  8
21
 10
203.0117
 20
-168.5601
 30
0.0000
  0
VERTEX
  8
21
 10
201.5617
 20
-171.0716
 30
0.0000
 42
1.0000
  0
SEQEND
  8
0
  0
POLYLINE
  8
21
 66
1
 10
0.0000
 20
0.0000
 30
0.0000
 40
0.0000
 41
0.0000
 70
1
  0
VERTEX
  8
21
 10
203.0349
 20
-168.6468
 30
0.0000
  0
VERTEX
  8
21
 10
206.0660
 20
-170.3968
 30
0.0000
 42
1.0000
  0
VERTEX
  8
21
 10
206.1295
 20
-170.2869
 30
0.0000
  0
VERTEX
  8
21
 10
203.0984
 20
-168.5369
 30
0.0000
 42
1.0000
  0
SEQEND
  8
0
  0
POLYLINE
  8
21
 66
1
 10
0.0000
 20
0.0000
 30
0.0000
 40
0.0000
 41
0.0000
 70
1
  0
VERTEX
  8
21
 10
201.9708
 20
-172.1797
 30
0.0000
  0
VERTEX
  8
21
 10
201.6780
 20
-171.0869
 30
0.0000
 42
1.0000
  0
VERTEX
  8
21
 10
201.5553
 20
-171.1198
 30
0.0000
  0
VERTEX
  8
21
 10
201.8481
 20
-172.2126
 30
0.0000
 42
1.0000
  0
SEQEND
  8
0
  0
LINE
  8
21
 10
203.5064
 20
-168.7303
 30
0.0000
 11
203.8080
 21
-173.4077
 31
0.0000
  0
LINE
  8
21
 10
205.7580
 20
-170.0302
 30
0.0000
 11
201.5564
 21
-172.1077
 31
0.0000
  0
CIRCLE
  8
21
 10
203.6572
 20
-171.0690
 30
0.0000
 40
1.4903
  0
CIRCLE
  8
21
 10
203.6572
 20
-171.0690
 30
0.0000
 40
1.5903
  0
CIRCLE
  8
21
 10
203.6572
 20
-171.0690
 30
0.0000
 40
1.2842
  0
CIRCLE
  8
21
 10
203.6572
 20
-171.0690
 30
0.0000
 40
1.3842
  0
POLYLINE
  8
21
 66
1
 10
0.0000
 20
0.0000
 30
0.0000
 40
0.0000
 41
0.0000
 70
1
  0
VERTEX
  8
21
 10
209.4091
 20
-166.8132
 30
0.0000
  0
VERTEX
  8
21
 10
206.7928
 20
-169.4295
 30
0.0000
 42
1.0000
  0
VERTEX
  8
21
 10
206.8826
 20
-169.5193
 30
0.0000
  0
VERTEX
  8
21
 10
209.4989
 20
-166.9030
 30
0.0000
 42
1.0000
  0
SEQEND
  8
0
  0
POLYLINE
  8
21
 66
1
 10
0.0000
 20
0.0000
 30
0.0000
 40
0.0000
 41
0.0000
 70
1
  0
VERTEX
  8
21
 10
206.8826
 20
-169.4295
 30
0.0000
  0
VERTEX
  8
21
 10
204.9734
 20
-167.5203
 30
0.0000
 42
1.0000
  0
VERTEX
  8
21
 10
204.8836
 20
-167.6101
 30
0.0000
  0
VERTEX
  8
21
 10
206.7928
 20
-169.5193
 30
0.0000
 42
1.0000
  0
SEQEND
  8
0
  0
POLYLINE
  8
21
 66
1
 10
0.0000
 20
0.0000
 30
0.0000
 40
0.0000
 41
0.0000
 70
1
  0
VERTEX
  8
21
 10
204.9734
 20
-167.5203
 30
0.0000
  0
VERTEX
  8
21
 10
204.4077
 20
-166.9546
 30
0.0000
 42
1.0000
  0
VERTEX
  8
21
 10
204.3179
 20
-167.0444
 30
0.0000
  0
VERTEX
  8
21
 10
204.8836
 20
-167.6101
 30
0.0000
 42
1.0000
  0
SEQEND
  8
0
  0
POLYLINE
  8
21
 66
1
 10
0.0000
 20
0.0000
 30
0.0000
 40
0.0000
 41
0.0000
 70
1
  0
VERTEX
  8
21
 10
204.4077
 20
-167.0444
 30
0.0000
  0
VERTEX
  8
21
 10
204.9734
 20
-166.4787
 30
0.0000
 42
1.0000
  0
VERTEX
  8
21
 10
204.8836
 20
-166.3889
 30
0.0000
  0
VERTEX
  8
21
 10
204.3179
 20
-166.9546
 30
0.0000
 42
1.0000
  0
SEQEND
  8
0
  0
POLYLINE
  8
21
 66
1
 10
0.0000
 20
0.0000
 30
0.0000
 40
0.0000
 41
0.0000
 70
1
  0
VERTEX
  8
21
 10
204.9734
 20
-166.4787
 30
0.0000
  0
VERTEX
  8
21
 10
207.0240
 20
-164.4281
 30
0.0000
 42
1.0000
  0
VERTEX
  8
21
 10
206.9342
 20
-164.3383
 30
0.0000
  0
VERTEX
  8
21
 10
204.8836
 20
-166.3889
 30
0.0000
 42
1.0000
  0
SEQEND
  8
0
  0
POLYLINE
  8
21
 66
1
 10
0.0000
 20
0.0000
 30
0.0000
 40
0.0000
 41
0.0000
 70
1
  0
VERTEX
  8
21
 10
206.9342
 20
-164.4281
 30
0.0000
  0
VERTEX
  8
21
 10
209.4091
 20
-166.9030
 30
0.0000
 42
1.0000
  0
VERTEX
  8
21
 10
209.4989
 20
-166.8132
 30
0.0000
  0
VERTEX
  8
21
 10
207.0240
 20
-164.3383
 30
0.0000
 42
1.0000
  0
SEQEND
  8
0
  0
POLYLINE
  8
21
 66
1
 10
0.0000
 20
0.0000
 30
0.0000
 40
0.0000
 41
0.0000
 70
1
  0
VERTEX
  8
21
 10
204.9920
 20
-167.5652
 30
0.0000
  0
VERTEX
  8
21
 10
204.9920
 20
-166.4338
 30
0.0000
 42
1.0000
  0
VERTEX
  8
21
 10
204.8650
 20
-166.4338
 30
0.0000
  0
VERTEX
  8
21
 10
204.8650
 20
-167.5652
 30
0.0000
 42
1.0000
  0
SEQEND
  8
0
  0
LINE
  8
21
 10
207.3680
 20
-164.6307
 30
0.0000
 11
206.4488
 21
-169.2269
 31
0.0000
  0
LINE
  8
21
 10
209.2065
 20
-166.4692
 30
0.0000
 11
204.6103
 21
-167.3884
 31
0.0000
  0
CIRCLE
  8
21
 10
206.9084
 20
-166.9288
 30
0.0000
 40
1.4903
  0
CIRCLE
  8
21
 10
206.9084
 20
-166.9288
 30
0.0000
 40
1.5903
  0
CIRCLE
  8
21
 10
206.9084
 20
-166.9288
 30
0.0000
 40
1.2842
  0
CIRCLE
  8
21
 10
206.9084
 20
-166.9288
 30
0.0000
 40
1.3842
  0
POLYLINE
  8
21
 66
1
 10
0.0000
 20
0.0000
 30
0.0000
 40
0.0000
 41
0.0000
 70
1
  0
VERTEX
  8
21
 10
213.5702
 20
-164.2386
 30
0.0000
  0
VERTEX
  8
21
 10
210.3659
 20
-166.0886
 30
0.0000
 42
1.0000
  0
VERTEX
  8
21
 10
210.4294
 20
-166.1985
 30
0.0000
  0
VERTEX
  8
21
 10
213.6337
 20
-164.3485
 30
0.0000
 42
1.0000
  0
SEQEND
  8
0
  0
POLYLINE
  8
21
 66
1
 10
0.0000
 20
0.0000
 30
0.0000
 40
0.0000
 41
0.0000
 70
1
  0
VERTEX
  8
21
 10
210.4526
 20
-166.1118
 30
0.0000
  0
VERTEX
  8
21
 10
209.1026
 20
-163.7735
 30
0.0000
 42
1.0000
  0
VERTEX
  8
21
 10
208.9927
 20
-163.8370
 30
0.0000
  0
VERTEX
  8
21
 10
210.3427
 20
-166.1753
 30
0.0000
 42
1.0000
  0
SEQEND
  8
0
  0
POLYLINE
  8
21
 66
1
 10
0.0000
 20
0.0000
 30
0.0000
 40
0.0000
 41
0.0000
 70
1
  0
VERTEX
  8
21
 10
209.1026
 20
-163.7735
 30
0.0000
  0
VERTEX
  8
21
 10
208.7026
 20
-163.0807
 30
0.0000
 42
1.0000
  0
VERTEX
  8
21
 10
208.5927
 20
-163.1442
 30
0.0000
  0
VERTEX
  8
21
 10
208.9927
 20
-163.8370
 30
0.0000
 42
1.0000
  0
SEQEND
  8
0
  0
POLYLINE
  8
21
 66
1
 10
0.0000
 20
0.0000
 30
0.0000
 40
0.0000
 41
0.0000
 70
1
  0
VERTEX
  8
21
 10
208.6794
 20
-163.1674
 30
0.0000
  0
VERTEX
  8
21
 10
209.3722
 20
-162.7674
 30
0.0000
 42
1.0000
  0
VERTEX
  8
21
 10
209.3087
 20
-162.6575
 30
0.0000
  0
VERTEX
  8
21
 10
208.6159
 20
-163.0575
 30
0.0000
 42
1.0000
  0
SEQEND
  8
0
  0
POLYLINE
  8
21
 66
1
 10
0.0000
 20
0.0000
 30
0.0000
 40
0.0000
 41
0.0000
 70
1
  0
VERTEX
  8
21
 10
209.3722
 20
-162.7674
 30
0.0000
  0
VERTEX
  8
21
 10
211.8837
 20
-161.3174
 30
0.0000
 42
1.0000
  0
VERTEX
  8
21
 10
211.8202
 20
-161.2075
 30
0.0000
  0
VERTEX
  8
21
 10
209.3087
 20
-162.6575
 30
0.0000
 42
1.0000
  0
SEQEND
  8
0
  0
POLYLINE
  8
21
 66
1
 10
0.0000
 20
0.0000
 30
0.0000
 40
0.0000
 41
0.0000
 70
1
  0
VERTEX
  8
21
 10
211.7970
 20
-161.2942
 30
0.0000
  0
VERTEX
  8
21
 10
213.5470
 20
-164.3253
 30
0.0000
 42
1.0000
  0
VERTEX
  8
21
 10
213.6569
 20
-164.2618
 30
0.0000
  0
VERTEX
  8
21
 10
211.9069
 20
-161.2307
 30
0.0000
 42
1.0000
  0
SEQEND
  8
0
  0
POLYLINE
  8
21
 66
1
 10
0.0000
 20
0.0000
 30
0.0000
 40
0.0000
 41
0.0000
 70
1
  0
VERTEX
  8
21
 10
209.1090
 20
-163.8217
 30
0.0000
  0
VERTEX
  8
21
 10
209.4018
 20
-162.7289
 30
0.0000
 42
1.0000
  0
VERTEX
  8
21
 10
209.2791
 20
-162.6960
 30
0.0000
  0
VERTEX
  8
21
 10
208.9863
 20
-163.7888
 30
0.0000
 42
1.0000
  0
SEQEND
  8
0
  0
LINE
  8
21
 10
212.1635
 20
-161.6022
 30
0.0000
 11
210.0861
 21
-165.8038
 31
0.0000
  0
LINE
  8
21
 10
213.4635
 20
-163.8538
 30
0.0000
 11
208.7861
 21
-163.5522
 31
0.0000
  0
CIRCLE
  8
21
 10
211.1248
 20
-163.7030
 30
0.0000
 40
1.4903
  0
CIRCLE
  8
21
 10
211.1248
 20
-163.7030
 30
0.0000
 40
1.5903
  0
CIRCLE
  8
21
 10
211.1248
 20
-163.7030
 30
0.0000
 40
1.2842
  0
CIRCLE
  8
21
 10
211.1248
 20
-163.7030
 30
0.0000
 40
1.3842
  0
POLYLINE
  8
21
 66
1
 10
0.0000
 20
0.0000
 30
0.0000
 40
0.0000
 41
0.0000
 70
1
  0
VERTEX
  8
21
 10
218.3775
 20
-162.7704
 30
0.0000
  0
VERTEX
  8
21
 10
214.8035
 20
-163.7280
 30
0.0000
 42
1.0000
  0
VERTEX
  8
21
 10
214.8364
 20
-163.8507
 30
0.0000
  0
VERTEX
  8
21
 10
218.4103
 20
-162.8931
 30
0.0000
 42
1.0000
  0
SEQEND
  8
0
  0
POLYLINE
  8
21
 66
1
 10
0.0000
 20
0.0000
 30
0.0000
 40
0.0000
 41
0.0000
 70
1
  0
VERTEX
  8
21
 10
214.8813
 20
-163.7729
 30
0.0000
  0
VERTEX
  8
21
 10
214.1825
 20
-161.1649
 30
0.0000
 42
1.0000
  0
VERTEX
  8
21
 10
214.0598
 20
-161.1978
 30
0.0000
  0
VERTEX
  8
21
 10
214.7586
 20
-163.8058
 30
0.0000
 42
1.0000
  0
SEQEND
  8
0
  0
POLYLINE
  8
21
 66
1
 10
0.0000
 20
0.0000
 30
0.0000
 40
0.0000
 41
0.0000
 70
1
  0
VERTEX
  8
21
 10
214.1825
 20
-161.1649
 30
0.0000
  0
VERTEX
  8
21
 10
213.9754
 20
-160.3922
 30
0.0000
 42
1.0000
  0
VERTEX
  8
21
 10
213.8528
 20
-160.4251
 30
0.0000
  0
VERTEX
  8
21
 10
214.0598
 20
-161.1978
 30
0.0000
 42
1.0000
  0
SEQEND
  8
0
  0
POLYLINE
  8
21
 66
1
 10
0.0000
 20
0.0000
 30
0.0000
 40
0.0000
 41
0.0000
 70
1
  0
VERTEX
  8
21
 10
213.9305
 20
-160.4700
 30
0.0000
  0
VERTEX
  8
21
 10
214.7033
 20
-160.2629
 30
0.0000
 42
1.0000
  0
VERTEX
  8
21
 10
214.6704
 20
-160.1403
 30
0.0000
  0
VERTEX
  8
21
 10
213.8977
 20
-160.3473
 30
0.0000
 42
1.0000
  0
SEQEND
  8
0
  0
POLYLINE
  8
21
 66
1
 10
0.0000
 20
0.0000
 30
0.0000
 40
0.0000
 41
0.0000
 70
1
  0
VERTEX
  8
21
 10
214.7033
 20
-160.2629
 30
0.0000
  0
VERTEX
  8
21
 10
217.5045
 20
-159.5123
 30
0.0000
 42
1.0000
  0
VERTEX
  8
21
 10
217.4716
 20
-159.3897
 30
0.0000
  0
VERTEX
  8
21
 10
214.6704
 20
-160.1403
 30
0.0000
 42
1.0000
  0
SEQEND
  8
0
  0
POLYLINE
  8
21
 66
1
 10
0.0000
 20
0.0000
 30
0.0000
 40
0.0000
 41
0.0000
 70
1
  0
VERTEX
  8
21
 10
217.4267
 20
-159.4674
 30
0.0000
  0
VERTEX
  8
21
 10
218.3326
 20
-162.8482
 30
0.0000
 42
1.0000
  0
VERTEX
  8
21
 10
218.4552
 20
-162.8153
 30
0.0000
  0
VERTEX
  8
21
 10
217.5494
 20
-159.4346
 30
0.0000
 42
1.0000
  0
SEQEND
  8
0
  0
POLYLINE
  8
21
 66
1
 10
0.0000
 20
0.0000
 30
0.0000
 40
0.0000
 41
0.0000
 70
1
  0
VERTEX
  8
21
 10
214.1761
 20
-161.2131
 30
0.0000
  0
VERTEX
  8
21
 10
214.7418
 20
-160.2333
 30
0.0000
 42
1.0000
  0
VERTEX
  8
21
 10
214.6319
 20
-160.1698
 30
0.0000
  0
VERTEX
  8
21
 10
214.0662
 20
-161.1496
 30
0.0000
 42
1.0000
  0
SEQEND
  8
0
  0
LINE
  8
21
 10
217.7011
 20
-159.8598
 30
0.0000
 11
214.6069
 21
-163.3806
 31
0.0000
  0
LINE
  8
21
 10
218.3740
 20
-162.3712
 30
0.0000
 11
213.9340
 21
-160.8692
 31
0.0000
  0
CIRCLE
  8
21
 10
216.1540
 20
-161.6202
 30
0.0000
 40
1.4903
  0
CIRCLE
  8
21
 10
216.1540
 20
-161.6202
 30
0.0000
 40
1.5903
  0
CIRCLE
  8
21
 10
216.1540
 20
-161.6202
 30
0.0000
 40
1.2842
  0
CIRCLE
  8
21
 10
216.1540
 20
-161.6202
 30
0.0000
 40
1.3842
  0
POLYLINE
  8
21
 66
1
 10
0.0000
 20
0.0000
 30
0.0000
 40
0.0000
 41
0.0000
 70
1
  0
VERTEX
  8
21
 10
223.3380
 20
-172.7047
 30
0.0000
  0
VERTEX
  8
21
 10
219.6380
 20
-172.7047
 30
0.0000
 42
1.0000
  0
VERTEX
  8
21
 10
219.6380
 20
-172.8317
 30
0.0000
  0
VERTEX
  8
21
 10
223.3380
 20
-172.8317
 30
0.0000
 42
1.0000
  0
SEQEND
  8
0
  0
POLYLINE
  8
21
 66
1
 10
0.0000
 20
0.0000
 30
0.0000
 40
0.0000
 41
0.0000
 70
1
  0
VERTEX
  8
21
 10
219.7015
 20
-172.7682
 30
0.0000
  0
VERTEX
  8
21
 10
219.7015
 20
-170.0682
 30
0.0000
 42
1.0000
  0
VERTEX
  8
21
 10
219.5745
 20
-170.0682
 30
0.0000
  0
VERTEX
  8
21
 10
219.5745
 20
-172.7682
 30
0.0000
 42
1.0000
  0
SEQEND
  8
0
  0
POLYLINE
  8
21
 66
1
 10
0.0000
 20
0.0000
 30
0.0000
 40
0.0000
 41
0.0000
 70
1
  0
VERTEX
  8
21
 10
219.7015
 20
-170.0682
 30
0.0000
  0
VERTEX
  8
21
 10
219.7015
 20
-169.2682
 30
0.0000
 42
1.0000
  0
VERTEX
  8
21
 10
219.5745
 20
-169.2682
 30
0.0000
  0
VERTEX
  8
21
 10
219.5745
 20
-170.0682
 30
0.0000
 42
1.0000
  0
SEQEND
  8
0
  0
POLYLINE
  8
21
 66
1
 10
0.0000
 20
0.0000
 30
0.0000
 40
0.0000
 41
0.0000
 70
1
  0
VERTEX
  8
21
 10
219.6380
 20
-169.3317
 30
0.0000
  0
VERTEX
  8
21
 10
220.4380
 20
-169.3317
 30
0.0000
 42
1.0000
  0
VERTEX
  8
21
 10
220.4380
 20
-169.2047
 30
0.0000
  0
VERTEX
  8
21
 10
219.6380
 20
-169.2047
 30
0.0000
 42
1.0000
  0
SEQEND
  8
0
  0
POLYLINE
  8
21
 66
1
 10
0.0000
 20
0.0000
 30
0.0000
 40
0.0000
 41
0.0000
 70
1
  0
VERTEX
  8
21
 10
220.4380
 20
-169.3317
 30
0.0000
  0
VERTEX
  8
21
 10
223.3380
 20
-169.3317
 30
0.0000
 42
1.0000
  0
VERTEX
  8
21
 10
223.3380
 20
-169.2047
 30
0.0000
  0
VERTEX
  8
21
 10
220.4380
 20
-169.2047
 30
0.0000
 42
1.0000
  0
SEQEND
  8
0
  0
POLYLINE
  8
21
 66
1
 10
0.0000
 20
0.0000
 30
0.0000
 40
0.0000
 41
0.0000
 70
1
  0
VERTEX
  8
21
 10
223.2745
 20
-169.2682
 30
0.0000
  0
VERTEX
  8
21
 10
223.2745
 20
-172.7682
 30
0.0000
 42
1.0000
  0
VERTEX
  8
21
 10
223.4015
 20
-172.7682
 30
0.0000
  0
VERTEX
  8
21
 10
223.4015
 20
-169.2682
 30
0.0000
 42
1.0000
  0
SEQEND
  8
0
  0
POLYLINE
  8
21
 66
1
 10
0.0000
 20
0.0000
 30
0.0000
 40
0.0000
 41
0.0000
 70
1
  0
VERTEX
  8
21
 10
219.6829
 20
-170.1131
 30
0.0000
  0
VERTEX
  8
21
 10
220.4829
 20
-169.3131
 30
0.0000
 42
1.0000
  0
VERTEX
  8
21
 10
220.3931
 20
-169.2233
 30
0.0000
  0
VERTEX
  8
21
 10
219.5931
 20
-170.0233
 30
0.0000
 42
1.0000
  0
SEQEND
  8
0
  0
LINE
  8
21
 10
223.4380
 20
-169.7182
 30
0.0000
 11
219.5380
 21
-172.3182
 31
0.0000
  0
LINE
  8
21
 10
223.4380
 20
-172.3182
 30
0.0000
 11
219.5380
 21
-169.7182
 31
0.0000
  0
CIRCLE
  8
21
 10
221.4880
 20
-171.0182
 30
0.0000
 40
1.4903
  0
CIRCLE
  8
21
 10
221.4880
 20
-171.0182
 30
0.0000
 40
1.5903
  0
CIRCLE
  8
21
 10
221.4880
 20
-171.0182
 30
0.0000
 40
1.2842
  0
CIRCLE
  8
21
 10
221.4880
 20
-171.0182
 30
0.0000
 40
1.3842
  0
POLYLINE
  8
21
 66
1
 10
0.0000
 20
0.0000
 30
0.0000
 40
0.0000
 41
0.0000
 70
1
  0
VERTEX
  8
21
 10
227.6063
 20
-174.8516
 30
0.0000
  0
VERTEX
  8
21
 10
224.4020
 20
-173.0016
 30
0.0000
 42
1.0000
  0
VERTEX
  8
21
 10
224.3385
 20
-173.1115
 30
0.0000
  0
VERTEX
  8
21
 10
227.5428
 20
-174.9615
 30
0.0000
 42
1.0000
  0
SEQEND
  8
0
  0
POLYLINE
  8
21
 66
1
 10
0.0000
 20
0.0000
 30
0.0000
 40
0.0000
 41
0.0000
 70
1
  0
VERTEX
  8
21
 10
224.4252
 20
-173.0883
 30
0.0000
  0
VERTEX
  8
21
 10
225.7752
 20
-170.7500
 30
0.0000
 42
1.0000
  0
VERTEX
  8
21
 10
225.6653
 20
-170.6865
 30
0.0000
  0
VERTEX
  8
21
 10
224.3153
 20
-173.0248
 30
0.0000
 42
1.0000
  0
SEQEND
  8
0
  0
POLYLINE
  8
21
 66
1
 10
0.0000
 20
0.0000
 30
0.0000
 40
0.0000
 41
0.0000
 70
1
  0
VERTEX
  8
21
 10
225.7752
 20
-170.7500
 30
0.0000
  0
VERTEX
  8
21
 10
226.1752
 20
-170.0572
 30
0.0000
 42
1.0000
  0
VERTEX
  8
21
 10
226.0653
 20
-169.9937
 30
0.0000
  0
VERTEX
  8
21
 10
225.6653
 20
-170.6865
 30
0.0000
 42
1.0000
  0
SEQEND
  8
0
  0
POLYLINE
  8
21
 66
1
 10
0.0000
 20
0.0000
 30
0.0000
 40
0.0000
 41
0.0000
 70
1
  0
VERTEX
  8
21
 10
226.0885
 20
-170.0804
 30
0.0000
  0
VERTEX
  8
21
 10
226.7813
 20
-170.4804
 30
0.0000
 42
1.0000
  0
VERTEX
  8
21
 10
226.8448
 20
-170.3705
 30
0.0000
  0
VERTEX
  8
21
 10
226.1520
 20
-169.9705
 30
0.0000
 42
1.0000
  0
SEQEND
  8
0
  0
POLYLINE
  8
21
 66
1
 10
0.0000
 20
0.0000
 30
0.0000
 40
0.0000
 41
0.0000
 70
1
  0
VERTEX
  8
21
 10
226.7813
 20
-170.4804
 30
0.0000
  0
VERTEX
  8
21
 10
229.2928
 20
-171.9304
 30
0.0000
 42
1.0000
  0
VERTEX
  8
21
 10
229.3563
 20
-171.8205
 30
0.0000
  0
VERTEX
  8
21
 10
226.8448
 20
-170.3705
 30
0.0000
 42
1.0000
  0
SEQEND
  8
0
  0
POLYLINE
  8
21
 66
1
 10
0.0000
 20
0.0000
 30
0.0000
 40
0.0000
 41
0.0000
 70
1
  0
VERTEX
  8
21
 10
229.2696
 20
-171.8437
 30
0.0000
  0
VERTEX
  8
21
 10
227.5196
 20
-174.8748
 30
0.0000
 42
1.0000
  0
VERTEX
  8
21
 10
227.6295
 20
-174.9383
 30
0.0000
  0
VERTEX
  8
21
 10
229.3795
 20
-171.9072
 30
0.0000
 42
1.0000
  0
SEQEND
  8
0
  0
POLYLINE
  8
21
 66
1
 10
0.0000
 20
0.0000
 30
0.0000
 40
0.0000
 41
0.0000
 70
1
  0
VERTEX
  8
21
 10
225.7367
 20
-170.7796
 30
0.0000
  0
VERTEX
  8
21
 10
226.8295
 20
-170.4868
 30
0.0000
 42
1.0000
  0
VERTEX
  8
21
 10
226.7966
 20
-170.3641
 30
0.0000
  0
VERTEX
  8
21
 10
225.7038
 20
-170.6569
 30
0.0000
 42
1.0000
  0
SEQEND
  8
0
  0
LINE
  8
21
 10
229.1861
 20
-172.3152
 30
0.0000
 11
224.5087
 21
-172.6168
 31
0.0000
  0
LINE
  8
21
 10
227.8861
 20
-174.5668
 30
0.0000
 11
225.8087
 21
-170.3652
 31
0.0000
  0
CIRCLE
  8
21
 10
226.8474
 20
-172.4660
 30
0.0000
 40
1.4903
  0
CIRCLE
  8
21
 10
226.8474
 20
-172.4660
 30
0.0000
 40
1.5903
  0
CIRCLE
  8
21
 10
226.8474
 20
-172.4660
 30
0.0000
 40
1.2842
  0
CIRCLE
  8
21
 10
226.8474
 20
-172.4660
 30
0.0000
 40
1.3842
  0
POLYLINE
  8
21
 66
1
 10
0.0000
 20
0.0000
 30
0.0000
 40
0.0000
 41
0.0000
 70
1
  0
VERTEX
  8
21
 10
230.1472
 20
-178.7468
 30
0.0000
  0
VERTEX
  8
21
 10
228.2972
 20
-175.5425
 30
0.0000
 42
1.0000
  0
VERTEX
  8
21
 10
228.1873
 20
-175.6060
 30
0.0000
  0
VERTEX
  8
21
 10
230.0373
 20
-178.8103
 30
0.0000
 42
1.0000
  0
SEQEND
  8
0
  0
POLYLINE
  8
21
 66
1
 10
0.0000
 20
0.0000
 30
0.0000
 40
0.0000
 41
0.0000
 70
1
  0
VERTEX
  8
21
 10
228.2740
 20
-175.6292
 30
0.0000
  0
VERTEX
  8
21
 10
230.6123
 20
-174.2792
 30
0.0000
 42
1.0000
  0
VERTEX
  8
21
 10
230.5488
 20
-174.1693
 30
0.0000
  0
VERTEX
  8
21
 10
228.2105
 20
-175.5193
 30
0.0000
 42
1.0000
  0
SEQEND
  8
0
  0
POLYLINE
  8
21
 66
1
 10
0.0000
 20
0.0000
 30
0.0000
 40
0.0000
 41
0.0000
 70
1
  0
VERTEX
  8
21
 10
230.6123
 20
-174.2792
 30
0.0000
  0
VERTEX
  8
21
 10
231.3051
 20
-173.8792
 30
0.0000
 42
1.0000
  0
VERTEX
  8
21
 10
231.2416
 20
-173.7693
 30
0.0000
  0
VERTEX
  8
21
 10
230.5488
 20
-174.1693
 30
0.0000
 42
1.0000
  0
SEQEND
  8
0
  0
POLYLINE
  8
21
 66
1
 10
0.0000
 20
0.0000
 30
0.0000
 40
0.0000
 41
0.0000
 70
1
  0
VERTEX
  8
21
 10
231.2184
 20
-173.8560
 30
0.0000
  0
VERTEX
  8
21
 10
231.6184
 20
-174.5488
 30
0.0000
 42
1.0000
  0
VERTEX
  8
21
 10
231.7283
 20
-174.4853
 30
0.0000
  0
VERTEX
  8
21
 10
231.3283
 20
-173.7925
 30
0.0000
 42
1.0000
  0
SEQEND
  8
0
  0
POLYLINE
  8
21
 66
1
 10
0.0000
 20
0.0000
 30
0.0000
 40
0.0000
 41
0.0000
 70
1
  0
VERTEX
  8
21
 10
231.6184
 20
-174.5488
 30
0.0000
  0
VERTEX
  8
21
 10
233.0684
 20
-177.0603
 30
0.0000
 42
1.0000
  0
VERTEX
  8
21
 10
233.1783
 20
-176.9968
 30
0.0000
  0
VERTEX
  8
21
 10
231.7283
 20
-174.4853
 30
0.0000
 42
1.0000
  0
SEQEND
  8
0
  0
POLYLINE
  8
21
 66
1
 10
0.0000
 20
0.0000
 30
0.0000
 40
0.0000
 41
0.0000
 70
1
  0
VERTEX
  8
21
 10
233.0916
 20
-176.9736
 30
0.0000
  0
VERTEX
  8
21
 10
230.0605
 20
-178.7236
 30
0.0000
 42
1.0000
  0
VERTEX
  8
21
 10
230.1240
 20
-178.8335
 30
0.0000
  0
VERTEX
  8
21
 10
233.1551
 20
-177.0835
 30
0.0000
 42
1.0000
  0
SEQEND
  8
0
  0
POLYLINE
  8
21
 66
1
 10
0.0000
 20
0.0000
 30
0.0000
 40
0.0000
 41
0.0000
 70
1
  0
VERTEX
  8
21
 10
230.5641
 20
-174.2856
 30
0.0000
  0
VERTEX
  8
21
 10
231.6569
 20
-174.5784
 30
0.0000
 42
1.0000
  0
VERTEX
  8
21
 10
231.6898
 20
-174.4557
 30
0.0000
  0
VERTEX
  8
21
 10
230.5970
 20
-174.1629
 30
0.0000
 42
1.0000
  0
SEQEND
  8
0
  0
LINE
  8
21
 10
232.7836
 20
-177.3401
 30
0.0000
 11
228.5820
 21
-175.2627
 31
0.0000
  0
LINE
  8
21
 10
230.5320
 20
-178.6401
 30
0.0000
 11
230.8336
 21
-173.9626
 31
0.0000
  0
CIRCLE
  8
21
 10
230.6828
 20
-176.3014
 30
0.0000
 40
1.4903
  0
CIRCLE
  8
21
 10
230.6828
 20
-176.3014
 30
0.0000
 40
1.5903
  0
CIRCLE
  8
21
 10
230.6828
 20
-176.3014
 30
0.0000
 40
1.2842
  0
CIRCLE
  8
21
 10
230.6828
 20
-176.3014
 30
0.0000
 40
1.3842
  0
POLYLINE
  8
21
 66
1
 10
0.0000
 20
0.0000
 30
0.0000
 40
0.0000
 41
0.0000
 70
1
  0
VERTEX
  8
21
 10
230.3933
 20
-183.4854
 30
0.0000
  0
VERTEX
  8
21
 10
230.3933
 20
-179.7854
 30
0.0000
 42
1.0000
  0
VERTEX
  8
21
 10
230.2663
 20
-179.7854
 30
0.0000
  0
VERTEX
  8
21
 10
230.2663
 20
-183.4854
 30
0.0000
 42
1.0000
  0
SEQEND
  8
0
  0
POLYLINE
  8
21
 66
1
 10
0.0000
 20
0.0000
 30
0.0000
 40
0.0000
 41
0.0000
 70
1
  0
VERTEX
  8
21
 10
230.3298
 20
-179.8489
 30
0.0000
  0
VERTEX
  8
21
 10
233.0298
 20
-179.8489
 30
0.0000
 42
1.0000
  0
VERTEX
  8
21
 10
233.0298
 20
-179.7219
 30
0.0000
  0
VERTEX
  8
21
 10
230.3298
 20
-179.7219
 30
0.0000
 42
1.0000
  0
SEQEND
  8
0
  0
POLYLINE
  8
21
 66
1
 10
0.0000
 20
0.0000
 30
0.0000
 40
0.0000
 41
0.0000
 70
1
  0
VERTEX
  8
21
 10
233.0298
 20
-179.8489
 30
0.0000
  0
VERTEX
  8
21
 10
233.8298
 20
-179.8489
 30
0.0000
 42
1.0000
  0
VERTEX
  8
21
 10
233.8298
 20
-179.7219
 30
0.0000
  0
VERTEX
  8
21
 10
233.0298
 20
-179.7219
 30
0.0000
 42
1.0000
  0
SEQEND
  8
0
  0
POLYLINE
  8
21
 66
1
 10
0.0000
 20
0.0000
 30
0.0000
 40
0.0000
 41
0.0000
 70
1
  0
VERTEX
  8
21
 10
233.7663
 20
-179.7854
 30
0.0000
  0
VERTEX
  8
21
 10
233.7663
 20
-180.5854
 30
0.0000
 42
1.0000
  0
VERTEX
  8
21
 10
233.8933
 20
-180.5854
 30
0.0000
  0
VERTEX
  8
21
 10
233.8933
 20
-179.7854
 30
0.0000
 42
1.0000
  0
SEQEND
  8
0
  0
POLYLINE
  8
21
 66
1
 10
0.0000
 20
0.0000
 30
0.0000
 40
0.0000
 41
0.0000
 70
1
  0
VERTEX
  8
21
 10
233.7663
 20
-180.5854
 30
0.0000
  0
VERTEX
  8
21
 10
233.7663
 20
-183.4854
 30
0.0000
 42
1.0000
  0
VERTEX
  8
21
 10
233.8933
 20
-183.4854
 30
0.0000
  0
VERTEX
  8
21
 10
233.8933
 20
-180.5854
 30
0.0000
 42
1.0000
  0
SEQEND
  8
0
  0
POLYLINE
  8
21
 66
1
 10
0.0000
 20
0.0000
 30
0.0000
 40
0.0000
 41
0.0000
 70
1
  0
VERTEX
  8
21
 10
233.8298
 20
-183.4219
 30
0.0000
  0
VERTEX
  8
21
 10
230.3298
 20
-183.4219
 30
0.0000
 42
1.0000
  0
VERTEX
  8
21
 10
230.3298
 20
-183.5489
 30
0.0000
  0
VERTEX
  8
21
 10
233.8298
 20
-183.5489
 30
0.0000
 42
1.0000
  0
SEQEND
  8
0
  0
POLYLINE
  8
21
 66
1
 10
0.0000
 20
0.0000
 30
0.0000
 40
0.0000
 41
0.0000
 70
1
  0
VERTEX
  8
21
 10
232.9849
 20
-179.8303
 30
0.0000
  0
VERTEX
  8
21
 10
233.7849
 20
-180.6303
 30
0.0000
 42
1.0000
  0
VERTEX
  8
21
 10
233.8747
 20
-180.5405
 30
0.0000
  0
VERTEX
  8
21
 10
233.0747
 20
-179.7405
 30
0.0000
 42
1.0000
  0
SEQEND
  8
0
  0
LINE
  8
21
 10
233.3798
 20
-183.5854
 30
0.0000
 11
230.7798
 21
-179.6854
 31
0.0000
  0
LINE
  8
21
 10
230.7798
 20
-183.5854
 30
0.0000
 11
233.3798
 21
-179.6854
 31
0.0000
  0
CIRCLE
  8
21
 10
232.0798
 20
-181.6354
 30
0.0000
 40
1.4903
  0
CIRCLE
  8
21
 10
232.0798
 20
-181.6354
 30
0.0000
 40
1.5903
  0
CIRCLE
  8
21
 10
232.0798
 20
-181.6354
 30
0.0000
 40
1.2842
  0
CIRCLE
  8
21
 10
232.0798
 20
-181.6354
 30
0.0000
 40
1.3842
  0
POLYLINE
  8
21
 66
1
 10
0.0000
 20
0.0000
 30
0.0000
 40
0.0000
 41
0.0000
 70
1
  0
VERTEX
  8
21
 10
228.2972
 20
-187.6267
 30
0.0000
  0
VERTEX
  8
21
 10
230.1472
 20
-184.4224
 30
0.0000
 42
1.0000
  0
VERTEX
  8
21
 10
230.0373
 20
-184.3589
 30
0.0000
  0
VERTEX
  8
21
 10
228.1873
 20
-187.5632
 30
0.0000
 42
1.0000
  0
SEQEND
  8
0
  0
POLYLINE
  8
21
 66
1
 10
0.0000
 20
0.0000
 30
0.0000
 40
0.0000
 41
0.0000
 70
1
  0
VERTEX
  8
21
 10
230.0605
 20
-184.4456
 30
0.0000
  0
VERTEX
  8
21
 10
232.3988
 20
-185.7956
 30
0.0000
 42
1.0000
  0
VERTEX
  8
21
 10
232.4623
 20
-185.6857
 30
0.0000
  0
VERTEX
  8
21
 10
230.1240
 20
-184.3357
 30
0.0000
 42
1.0000
  0
SEQEND
  8
0
  0
POLYLINE
  8
21
 66
1
 10
0.0000
 20
0.0000
 30
0.0000
 40
0.0000
 41
0.0000
 70
1
  0
VERTEX
  8
21
 10
232.3988
 20
-185.7956
 30
0.0000
  0
VERTEX
  8
21
 10
233.0916
 20
-186.1956
 30
0.0000
 42
1.0000
  0
VERTEX
  8
21
 10
233.1551
 20
-186.0857
 30
0.0000
  0
VERTEX
  8
21
 10
232.4623
 20
-185.6857
 30
0.0000
 42
1.0000
  0
SEQEND
  8
0
  0
POLYLINE
  8
21
 66
1
 10
0.0000
 20
0.0000
 30
0.0000
 40
0.0000
 41
0.0000
 70
1
  0
VERTEX
  8
21
 10
233.0684
 20
-186.1089
 30
0.0000
  0
VERTEX
  8
21
 10
232.6684
 20
-186.8017
 30
0.0000
 42
1.0000
  0
VERTEX
  8
21
 10
232.7783
 20
-186.8652
 30
0.0000
  0
VERTEX
  8
21
 10
233.1783
 20
-186.1724
 30
0.0000
 42
1.0000
  0
SEQEND
  8
0
  0
POLYLINE
  8
21
 66
1
 10
0.0000
 20
0.0000
 30
0.0000
 40
0.0000
 41
0.0000
 70
1
  0
VERTEX
  8
21
 10
232.6684
 20
-186.8017
 30
0.0000
  0
VERTEX
  8
21
 10
231.2184
 20
-189.3132
 30
0.0000
 42
1.0000
  0
VERTEX
  8
21
 10
231.3283
 20
-189.3767
 30
0.0000
  0
VERTEX
  8
21
 10
232.7783
 20
-186.8652
 30
0.0000
 42
1.0000
  0
SEQEND
  8
0
  0
POLYLINE
  8
21
 66
1
 10
0.0000
 20
0.0000
 30
0.0000
 40
0.0000
 41
0.0000
 70
1
  0
VERTEX
  8
21
 10
231.3051
 20
-189.2900
 30
0.0000
  0
VERTEX
  8
21
 10
228.2740
 20
-187.5400
 30
0.0000
 42
1.0000
  0
VERTEX
  8
21
 10
228.2105
 20
-187.6499
 30
0.0000
  0
VERTEX
  8
21
 10
231.2416
 20
-189.3999
 30
0.0000
 42
1.0000
  0
SEQEND
  8
0
  0
POLYLINE
  8
21
 66
1
 10
0.0000
 20
0.0000
 30
0.0000
 40
0.0000
 41
0.0000
 70
1
  0
VERTEX
  8
21
 10
232.3692
 20
-185.7571
 30
0.0000
  0
VERTEX
  8
21
 10
232.6620
 20
-186.8499
 30
0.0000
 42
1.0000
  0
VERTEX
  8
21
 10
232.7847
 20
-186.8170
 30
0.0000
  0
VERTEX
  8
21
 10
232.4919
 20
-185.7242
 30
0.0000
 42
1.0000
  0
SEQEND
  8
0
  0
LINE
  8
21
 10
230.8336
 20
-189.2065
 30
0.0000
 11
230.5320
 21
-184.5291
 31
0.0000
  0
LINE
  8
21
 10
228.5820
 20
-187.9065
 30
0.0000
 11
232.7836
 21
-185.8290
 31
0.0000
  0
CIRCLE
  8
21
 10
230.6828
 20
-186.8678
 30
0.0000
 40
1.4903
  0
CIRCLE
  8
21
 10
230.6828
 20
-186.8678
 30
0.0000
 40
1.5903
  0
CIRCLE
  8
21
 10
230.6828
 20
-186.8678
 30
0.0000
 40
1.2842
  0
CIRCLE
  8
21
 10
230.6828
 20
-186.8678
 30
0.0000
 40
1.3842
  0
POLYLINE
  8
21
 66
1
 10
0.0000
 20
0.0000
 30
0.0000
 40
0.0000
 41
0.0000
 70
1
  0
VERTEX
  8
21
 10
224.3766
 20
-190.2438
 30
0.0000
  0
VERTEX
  8
21
 10
227.5809
 20
-188.3938
 30
0.0000
 42
1.0000
  0
VERTEX
  8
21
 10
227.5174
 20
-188.2839
 30
0.0000
  0
VERTEX
  8
21
 10
224.3131
 20
-190.1339
 30
0.0000
 42
1.0000
  0
SEQEND
  8
0
  0
POLYLINE
  8
21
 66
1
 10
0.0000
 20
0.0000
 30
0.0000
 40
0.0000
 41
0.0000
 70
1
  0
VERTEX
  8
21
 10
227.4942
 20
-188.3706
 30
0.0000
  0
VERTEX
  8
21
 10
228.8442
 20
-190.7089
 30
0.0000
 42
1.0000
  0
VERTEX
  8
21
 10
228.9541
 20
-190.6454
 30
0.0000
  0
VERTEX
  8
21
 10
227.6041
 20
-188.3071
 30
0.0000
 42
1.0000
  0
SEQEND
  8
0
  0
POLYLINE
  8
21
 66
1
 10
0.0000
 20
0.0000
 30
0.0000
 40
0.0000
 41
0.0000
 70
1
  0
VERTEX
  8
21
 10
228.8442
 20
-190.7089
 30
0.0000
  0
VERTEX
  8
21
 10
229.2442
 20
-191.4017
 30
0.0000
 42
1.0000
  0
VERTEX
  8
21
 10
229.3541
 20
-191.3382
 30
0.0000
  0
VERTEX
  8
21
 10
228.9541
 20
-190.6454
 30
0.0000
 42
1.0000
  0
SEQEND
  8
0
  0
POLYLINE
  8
21
 66
1
 10
0.0000
 20
0.0000
 30
0.0000
 40
0.0000
 41
0.0000
 70
1
  0
VERTEX
  8
21
 10
229.2674
 20
-191.3150
 30
0.0000
  0
VERTEX
  8
21
 10
228.5746
 20
-191.7150
 30
0.0000
 42
1.0000
  0
VERTEX
  8
21
 10
228.6381
 20
-191.8249
 30
0.0000
  0
VERTEX
  8
21
 10
229.3309
 20
-191.4249
 30
0.0000
 42
1.0000
  0
SEQEND
  8
0
  0
POLYLINE
  8
21
 66
1
 10
0.0000
 20
0.0000
 30
0.0000
 40
0.0000
 41
0.0000
 70
1
  0
VERTEX
  8
21
 10
228.5746
 20
-191.7150
 30
0.0000
  0
VERTEX
  8
21
 10
226.0631
 20
-193.1650
 30
0.0000
 42
1.0000
  0
VERTEX
  8
21
 10
226.1266
 20
-193.2749
 30
0.0000
  0
VERTEX
  8
21
 10
228.6381
 20
-191.8249
 30
0.0000
 42
1.0000
  0
SEQEND
  8
0
  0
POLYLINE
  8
21
 66
1
 10
0.0000
 20
0.0000
 30
0.0000
 40
0.0000
 41
0.0000
 70
1
  0
VERTEX
  8
21
 10
226.1498
 20
-193.1882
 30
0.0000
  0
VERTEX
  8
21
 10
224.3998
 20
-190.1571
 30
0.0000
 42
1.0000
  0
VERTEX
  8
21
 10
224.2899
 20
-190.2206
 30
0.0000
  0
VERTEX
  8
21
 10
226.0399
 20
-193.2517
 30
0.0000
 42
1.0000
  0
SEQEND
  8
0
  0
POLYLINE
  8
21
 66
1
 10
0.0000
 20
0.0000
 30
0.0000
 40
0.0000
 41
0.0000
 70
1
  0
VERTEX
  8
21
 10
228.8378
 20
-190.6607
 30
0.0000
  0
VERTEX
  8
21
 10
228.5450
 20
-191.7535
 30
0.0000
 42
1.0000
  0
VERTEX
  8
21
 10
228.6677
 20
-191.7864
 30
0.0000
  0
VERTEX
  8
21
 10
228.9605
 20
-190.6936
 30
0.0000
 42
1.0000
  0
SEQEND
  8
0
  0
LINE
  8
21
 10
225.7833
 20
-192.8802
 30
0.0000
 11
227.8607
 21
-188.6786
 31
0.0000
  0
LINE
  8
21
 10
224.4832
 20
-190.6286
 30
0.0000
 11
229.1607
 21
-190.9302
 31
0.0000
  0
CIRCLE
  8
21
 10
226.8220
 20
-190.7794
 30
0.0000
 40
1.4903
  0
CIRCLE
  8
21
 10
226.8220
 20
-190.7794
 30
0.0000
 40
1.5903
  0
CIRCLE
  8
21
 10
226.8220
 20
-190.7794
 30
0.0000
 40
1.2842
  0
CIRCLE
  8
21
 10
226.8220
 20
-190.7794
 30
0.0000
 40
1.3842
  0
POLYLINE
  8
21
 66
1
 10
0.0000
 20
0.0000
 30
0.0000
 40
0.0000
 41
0.0000
 70
1
  0
VERTEX
  8
21
 10
219.6380
 20
-190.5153
 30
0.0000
  0
VERTEX
  8
21
 10
223.3380
 20
-190.5153
 30
0.0000
 42
1.0000
  0
VERTEX
  8
21
 10
223.3380
 20
-190.3883
 30
0.0000
  0
VERTEX
  8
21
 10
219.6380
 20
-190.3883
 30
0.0000
 42
1.0000
  0
SEQEND
  8
0
  0
POLYLINE
  8
21
 66
1
 10
0.0000
 20
0.0000
 30
0.0000
 40
0.0000
 41
0.0000
 70
1
  0
VERTEX
  8
21
 10
223.2745
 20
-190.4518
 30
0.0000
  0
VERTEX
  8
21
 10
223.2745
 20
-193.1518
 30
0.0000
 42
1.0000
  0
VERTEX
  8
21
 10
223.4015
 20
-193.1518
 30
0.0000
  0
VERTEX
  8
21
 10
223.4015
 20
-190.4518
 30
0.0000
 42
1.0000
  0
SEQEND
  8
0
  0
POLYLINE
  8
21
 66
1
 10
0.0000
 20
0.0000
 30
0.0000
 40
0.0000
 41
0.0000
 70
1
  0
VERTEX
  8
21
 10
223.2745
 20
-193.1518
 30
0.0000
  0
VERTEX
  8
21
 10
223.2745
 20
-193.9518
 30
0.0000
 42
1.0000
  0
VERTEX
  8
21
 10
223.4015
 20
-193.9518
 30
0.0000
  0
VERTEX
  8
21
 10
223.4015
 20
-193.1518
 30
0.0000
 42
1.0000
  0
SEQEND
  8
0
  0
POLYLINE
  8
21
 66
1
 10
0.0000
 20
0.0000
 30
0.0000
 40
0.0000
 41
0.0000
 70
1
  0
VERTEX
  8
21
 10
223.3380
 20
-193.8883
 30
0.0000
  0
VERTEX
  8
21
 10
222.5380
 20
-193.8883
 30
0.0000
 42
1.0000
  0
VERTEX
  8
21
 10
222.5380
 20
-194.0153
 30
0.0000
  0
VERTEX
  8
21
 10
223.3380
 20
-194.0153
 30
0.0000
 42
1.0000
  0
SEQEND
  8
0
  0
POLYLINE
  8
21
 66
1
 10
0.0000
 20
0.0000
 30
0.0000
 40
0.0000
 41
0.0000
 70
1
  0
VERTEX
  8
21
 10
222.5380
 20
-193.8883
 30
0.0000
  0
VERTEX
  8
21
 10
219.6380
 20
-193.8883
 30
0.0000
 42
1.0000
  0
VERTEX
  8
21
 10
219.6380
 20
-194.0153
 30
0.0000
  0
VERTEX
  8
21
 10
222.5380
 20
-194.0153
 30
0.0000
 42
1.0000
  0
SEQEND
  8
0
  0
POLYLINE
  8
21
 66
1
 10
0.0000
 20
0.0000
 30
0.0000
 40
0.0000
 41
0.0000
 70
1
  0
VERTEX
  8
21
 10
219.7015
 20
-193.9518
 30
0.0000
  0
VERTEX
  8
21
 10
219.7015
 20
-190.4518
 30
0.0000
 42
1.0000
  0
VERTEX
  8
21
 10
219.5745
 20
-190.4518
 30
0.0000
  0
VERTEX
  8
21
 10
219.5745
 20
-193.9518
 30
0.0000
 42
1.0000
  0
SEQEND
  8
0
  0
POLYLINE
  8
21
 66
1
 10
0.0000
 20
0.0000
 30
0.0000
 40
0.0000
 41
0.0000
 70
1
  0
VERTEX
  8
21
 10
223.2931
 20
-193.1069
 30
0.0000
  0
VERTEX
  8
21
 10
222.4931
 20
-193.9069
 30
0.0000
 42
1.0000
  0
VERTEX
  8
21
 10
222.5829
 20
-193.9967
 30
0.0000
  0
VERTEX
  8
21
 10
223.3829
 20
-193.1967
 30
0.0000
 42
1.0000
  0
SEQEND
  8
0
  0
LINE
  8
21
 10
219.5380
 20
-193.5018
 30
0.0000
 11
223.4380
 21
-190.9018
 31
0.0000
  0
LINE
  8
21
 10
219.5380
 20
-190.9018
 30
0.0000
 11
223.4380
 21
-193.5018
 31
0.0000
  0
CIRCLE
  8
21
 10
221.4880
 20
-192.2018
 30
0.0000
 40
1.4903
  0
CIRCLE
  8
21
 10
221.4880
 20
-192.2018
 30
0.0000
 40
1.5903
  0
CIRCLE
  8
21
 10
221.4880
 20
-192.2018
 30
0.0000
 40
1.2842
  0
CIRCLE
  8
21
 10
221.4880
 20
-192.2018
 30
0.0000
 40
1.3842
  0
POLYLINE
  8
21
 66
1
 10
0.0000
 20
0.0000
 30
0.0000
 40
0.0000
 41
0.0000
 70
1
  0
VERTEX
  8
21
 10
215.4967
 20
-188.4446
 30
0.0000
  0
VERTEX
  8
21
 10
218.7010
 20
-190.2946
 30
0.0000
 42
1.0000
  0
VERTEX
  8
21
 10
218.7645
 20
-190.1847
 30
0.0000
  0
VERTEX
  8
21
 10
215.5602
 20
-188.3347
 30
0.0000
 42
1.0000
  0
SEQEND
  8
0
  0
POLYLINE
  8
21
 66
1
 10
0.0000
 20
0.0000
 30
0.0000
 40
0.0000
 41
0.0000
 70
1
  0
VERTEX
  8
21
 10
218.6778
 20
-190.2079
 30
0.0000
  0
VERTEX
  8
21
 10
217.3278
 20
-192.5462
 30
0.0000
 42
1.0000
  0
VERTEX
  8
21
 10
217.4377
 20
-192.6097
 30
0.0000
  0
VERTEX
  8
21
 10
218.7877
 20
-190.2714
 30
0.0000
 42
1.0000
  0
SEQEND
  8
0
  0
POLYLINE
  8
21
 66
1
 10
0.0000
 20
0.0000
 30
0.0000
 40
0.0000
 41
0.0000
 70
1
  0
VERTEX
  8
21
 10
217.3278
 20
-192.5462
 30
0.0000
  0
VERTEX
  8
21
 10
216.9278
 20
-193.2390
 30
0.0000
 42
1.0000
  0
VERTEX
  8
21
 10
217.0377
 20
-193.3025
 30
0.0000
  0
VERTEX
  8
21
 10
217.4377
 20
-192.6097
 30
0.0000
 42
1.0000
  0
SEQEND
  8
0
  0
POLYLINE
  8
21
 66
1
 10
0.0000
 20
0.0000
 30
0.0000
 40
0.0000
 41
0.0000
 70
1
  0
VERTEX
  8
21
 10
217.0145
 20
-193.2158
 30
0.0000
  0
VERTEX
  8
21
 10
216.3217
 20
-192.8158
 30
0.0000
 42
1.0000
  0
VERTEX
  8
21
 10
216.2582
 20
-192.9257
 30
0.0000
  0
VERTEX
  8
21
 10
216.9510
 20
-193.3257
 30
0.0000
 42
1.0000
  0
SEQEND
  8
0
  0
POLYLINE
  8
21
 66
1
 10
0.0000
 20
0.0000
 30
0.0000
 40
0.0000
 41
0.0000
 70
1
  0
VERTEX
  8
21
 10
216.3217
 20
-192.8158
 30
0.0000
  0
VERTEX
  8
21
 10
213.8102
 20
-191.3658
 30
0.0000
 42
1.0000
  0
VERTEX
  8
21
 10
213.7467
 20
-191.4757
 30
0.0000
  0
VERTEX
  8
21
 10
216.2582
 20
-192.9257
 30
0.0000
 42
1.0000
  0
SEQEND
  8
0
  0
POLYLINE
  8
21
 66
1
 10
0.0000
 20
0.0000
 30
0.0000
 40
0.0000
 41
0.0000
 70
1
  0
VERTEX
  8
21
 10
213.8334
 20
-191.4525
 30
0.0000
  0
VERTEX
  8
21
 10
215.5834
 20
-188.4214
 30
0.0000
 42
1.0000
  0
VERTEX
  8
21
 10
215.4735
 20
-188.3579
 30
0.0000
  0
VERTEX
  8
21
 10
213.7235
 20
-191.3890
 30
0.0000
 42
1.0000
  0
SEQEND
  8
0
  0
POLYLINE
  8
21
 66
1
 10
0.0000
 20
0.0000
 30
0.0000
 40
0.0000
 41
0.0000
 70
1
  0
VERTEX
  8
21
 10
217.3663
 20
-192.5166
 30
0.0000
  0
VERTEX
  8
21
 10
216.2735
 20
-192.8094
 30
0.0000
 42
1.0000
  0
VERTEX
  8
21
 10
216.3064
 20
-192.9321
 30
0.0000
  0
VERTEX
  8
21
 10
217.3992
 20
-192.6393
 30
0.0000
 42
1.0000
  0
SEQEND
  8
0
  0
LINE
  8
21
 10
213.9169
 20
-190.9810
 30
0.0000
 11
218.5943
 21
-190.6794
 31
0.0000
  0
LINE
  8
21
 10
215.2169
 20
-188.7294
 30
0.0000
 11
217.2943
 21
-192.9310
 31
0.0000
  0
CIRCLE
  8
21
 10
216.2556
 20
-190.8302
 30
0.0000
 40
1.4903
  0
CIRCLE
  8
21
 10
216.2556
 20
-190.8302
 30
0.0000
 40
1.5903
  0
CIRCLE
  8
21
 10
216.2556
 20
-190.8302
 30
0.0000
 40
1.2842
  0
CIRCLE
  8
21
 10
216.2556
 20
-190.8302
 30
0.0000
 40
1.3842
  0
POLYLINE
  8
21
 66
1
 10
0.0000
 20
0.0000
 30
0.0000
 40
0.0000
 41
0.0000
 70
1
  0
VERTEX
  8
21
 10
212.8796
 20
-184.6510
 30
0.0000
  0
VERTEX
  8
21
 10
214.7296
 20
-187.8553
 30
0.0000
 42
1.0000
  0
VERTEX
  8
21
 10
214.8395
 20
-187.7918
 30
0.0000
  0
VERTEX
  8
21
 10
212.9895
 20
-184.5875
 30
0.0000
 42
1.0000
  0
SEQEND
  8
0
  0
POLYLINE
  8
21
 66
1
 10
0.0000
 20
0.0000
 30
0.0000
 40
0.0000
 41
0.0000
 70
1
  0
VERTEX
  8
21
 10
214.7528
 20
-187.7686
 30
0.0000
  0
VERTEX
  8
21
 10
212.4145
 20
-189.1186
 30
0.0000
 42
1.0000
  0
VERTEX
  8
21
 10
212.4780
 20
-189.2285
 30
0.0000
  0
VERTEX
  8
21
 10
214.8163
 20
-187.8785
 30
0.0000
 42
1.0000
  0
SEQEND
  8
0
  0
POLYLINE
  8
21
 66
1
 10
0.0000
 20
0.0000
 30
0.0000
 40
0.0000
 41
0.0000
 70
1
  0
VERTEX
  8
21
 10
212.4145
 20
-189.1186
 30
0.0000
  0
VERTEX
  8
21
 10
211.7217
 20
-189.5186
 30
0.0000
 42
1.0000
  0
VERTEX
  8
21
 10
211.7852
 20
-189.6285
 30
0.0000
  0
VERTEX
  8
21
 10
212.4780
 20
-189.2285
 30
0.0000
 42
1.0000
  0
SEQEND
  8
0
  0
POLYLINE
  8
21
 66
1
 10
0.0000
 20
0.0000
 30
0.0000
 40
0.0000
 41
0.0000
 70
1
  0
VERTEX
  8
21
 10
211.8084
 20
-189.5418
 30
0.0000
  0
VERTEX
  8
21
 10
211.4084
 20
-188.8490
 30
0.0000
 42
1.0000
  0
VERTEX
  8
21
 10
211.2985
 20
-188.9125
 30
0.0000
  0
VERTEX
  8
21
 10
211.6985
 20
-189.6053
 30
0.0000
 42
1.0000
  0
SEQEND
  8
0
  0
POLYLINE
  8
21
 66
1
 10
0.0000
 20
0.0000
 30
0.0000
 40
0.0000
 41
0.0000
 70
1
  0
VERTEX
  8
21
 10
211.4084
 20
-188.8490
 30
0.0000
  0
VERTEX
  8
21
 10
209.9584
 20
-186.3375
 30
0.0000
 42
1.0000
  0
VERTEX
  8
21
 10
209.8485
 20
-186.4010
 30
0.0000
  0
VERTEX
  8
21
 10
211.2985
 20
-188.9125
 30
0.0000
 42
1.0000
  0
SEQEND
  8
0
  0
POLYLINE
  8
21
 66
1
 10
0.0000
 20
0.0000
 30
0.0000
 40
0.0000
 41
0.0000
 70
1
  0
VERTEX
  8
21
 10
209.9352
 20
-186.4242
 30
0.0000
  0
VERTEX
  8
21
 10
212.9663
 20
-184.6742
 30
0.0000
 42
1.0000
  0
VERTEX
  8
21
 10
212.9028
 20
-184.5643
 30
0.0000
  0
VERTEX
  8
21
 10
209.8717
 20
-186.3143
 30
0.0000
 42
1.0000
  0
SEQEND
  8
0
  0
POLYLINE
  8
21
 66
1
 10
0.0000
 20
0.0000
 30
0.0000
 40
0.0000
 41
0.0000
 70
1
  0
VERTEX
  8
21
 10
212.4627
 20
-189.1122
 30
0.0000
  0
VERTEX
  8
21
 10
211.3699
 20
-188.8194
 30
0.0000
 42
1.0000
  0
VERTEX
  8
21
 10
211.3370
 20
-188.9421
 30
0.0000
  0
VERTEX
  8
21
 10
212.4298
 20
-189.2349
 30
0.0000
 42
1.0000
  0
SEQEND
  8
0
  0
LINE
  8
21
 10
210.2432
 20
-186.0576
 30
0.0000
 11
214.4448
 21
-188.1351
 31
0.0000
  0
LINE
  8
21
 10
212.4948
 20
-184.7577
 30
0.0000
 11
212.1932
 21
-189.4351
 31
0.0000
  0
CIRCLE
  8
21
 10
212.3440
 20
-187.0964
 30
0.0000
 40
1.4903
  0
CIRCLE
  8
21
 10
212.3440
 20
-187.0964
 30
0.0000
 40
1.5903
  0
CIRCLE
  8
21
 10
212.3440
 20
-187.0964
 30
0.0000
 40
1.2842
  0
CIRCLE
  8
21
 10
212.3440
 20
-187.0964
 30
0.0000
 40
1.3842
  0
POLYLINE
  8
21
 66
1
 10
0.0000
 20
0.0000
 30
0.0000
 40
0.0000
 41
0.0000
 70
1
  0
VERTEX
  8
21
 10
212.5827
 20
-179.7854
 30
0.0000
  0
VERTEX
  8
21
 10
212.5827
 20
-183.4854
 30
0.0000
 42
1.0000
  0
VERTEX
  8
21
 10
212.7097
 20
-183.4854
 30
0.0000
  0
VERTEX
  8
21
 10
212.7097
 20
-179.7854
 30
0.0000
 42
1.0000
  0
SEQEND
  8
0
  0
POLYLINE
  8
21
 66
1
 10
0.0000
 20
0.0000
 30
0.0000
 40
0.0000
 41
0.0000
 70
1
  0
VERTEX
  8
21
 10
212.6462
 20
-183.4219
 30
0.0000
  0
VERTEX
  8
21
 10
209.9462
 20
-183.4219
 30
0.0000
 42
1.0000
  0
VERTEX
  8
21
 10
209.9462
 20
-183.5489
 30
0.0000
  0
VERTEX
  8
21
 10
212.6462
 20
-183.5489
 30
0.0000
 42
1.0000
  0
SEQEND
  8
0
  0
POLYLINE
  8
21
 66
1
 10
0.0000
 20
0.0000
 30
0.0000
 40
0.0000
 41
0.0000
 70
1
  0
VERTEX
  8
21
 10
209.9462
 20
-183.4219
 30
0.0000
  0
VERTEX
  8
21
 10
209.1462
 20
-183.4219
 30
0.0000
 42
1.0000
  0
VERTEX
  8
21
 10
209.1462
 20
-183.5489
 30
0.0000
  0
VERTEX
  8
21
 10
209.9462
 20
-183.5489
 30
0.0000
 42
1.0000
  0
SEQEND
  8
0
  0
POLYLINE
  8
21
 66
1
 10
0.0000
 20
0.0000
 30
0.0000
 40
0.0000
 41
0.0000
 70
1
  0
VERTEX
  8
21
 10
209.2097
 20
-183.4854
 30
0.0000
  0
VERTEX
  8
21
 10
209.2097
 20
-182.6854
 30
0.0000
 42
1.0000
  0
VERTEX
  8
21
 10
209.0827
 20
-182.6854
 30
0.0000
  0
VERTEX
  8
21
 10
209.0827
 20
-183.4854
 30
0.0000
 42
1.0000
  0
SEQEND
  8
0
  0
POLYLINE
  8
21
 66
1
 10
0.0000
 20
0.0000
 30
0.0000
 40
0.0000
 41
0.0000
 70
1
  0
VERTEX
  8
21
 10
209.2097
 20
-182.6854
 30
0.0000
  0
VERTEX
  8
21
 10
209.2097
 20
-179.7854
 30
0.0000
 42
1.0000
  0
VERTEX
  8
21
 10
209.0827
 20
-179.7854
 30
0.0000
  0
VERTEX
  8
21
 10
209.0827
 20
-182.6854
 30
0.0000
 42
1.0000
  0
SEQEND
  8
0
  0
POLYLINE
  8
21
 66
1
 10
0.0000
 20
0.0000
 30
0.0000
 40
0.0000
 41
0.0000
 70
1
  0
VERTEX
  8
21
 10
209.1462
 20
-179.8489
 30
0.0000
  0
VERTEX
  8
21
 10
212.6462
 20
-179.8489
 30
0.0000
 42
1.0000
  0
VERTEX
  8
21
 10
212.6462
 20
-179.7219
 30
0.0000
  0
VERTEX
  8
21
 10
209.1462
 20
-179.7219
 30
0.0000
 42
1.0000
  0
SEQEND
  8
0
  0
POLYLINE
  8
21
 66
1
 10
0.0000
 20
0.0000
 30
0.0000
 40
0.0000
 41
0.0000
 70
1
  0
VERTEX
  8
21
 10
209.9911
 20
-183.4405
 30
0.0000
  0
VERTEX
  8
21
 10
209.1911
 20
-182.6405
 30
0.0000
 42
1.0000
  0
VERTEX
  8
21
 10
209.1013
 20
-182.7303
 30
0.0000
  0
VERTEX
  8
21
 10
209.9013
 20
-183.5303
 30
0.0000
 42
1.0000
  0
SEQEND
  8
0
  0
LINE
  8
21
 10
209.5962
 20
-179.6854
 30
0.0000
 11
212.1962
 21
-183.5854
 31
0.0000
  0
LINE
  8
21
 10
212.1962
 20
-179.6854
 30
0.0000
 11
209.5962
 21
-183.5854
 31
0.0000
  0
CIRCLE
  8
21
 10
210.8962
 20
-181.6354
 30
0.0000
 40
1.4903
  0
CIRCLE
  8
21
 10
210.8962
 20
-181.6354
 30
0.0000
 40
1.5903
  0
CIRCLE
  8
21
 10
210.8962
 20
-181.6354
 30
0.0000
 40
1.2842
  0
CIRCLE
  8
21
 10
210.8962
 20
-181.6354
 30
0.0000
 40
1.3842
  0
POLYLINE
  8
21
 66
1
 10
0.0000
 20
0.0000
 30
0.0000
 40
0.0000
 41
0.0000
 70
1
  0
VERTEX
  8
21
 10
214.6788
 20
-175.5933
 30
0.0000
  0
VERTEX
  8
21
 10
212.8288
 20
-178.7976
 30
0.0000
 42
1.0000
  0
VERTEX
  8
21
 10
212.9387
 20
-178.8611
 30
0.0000
  0
VERTEX
  8
21
 10
214.7887
 20
-175.6568
 30
0.0000
 42
1.0000
  0
SEQEND
  8
0
  0
POLYLINE
  8
21
 66
1
 10
0.0000
 20
0.0000
 30
0.0000
 40
0.0000
 41
0.0000
 70
1
  0
VERTEX
  8
21
 10
212.9155
 20
-178.7744
 30
0.0000
  0
VERTEX
  8
21
 10
210.5772
 20
-177.4244
 30
0.0000
 42
1.0000
  0
VERTEX
  8
21
 10
210.5137
 20
-177.5343
 30
0.0000
  0
VERTEX
  8
21
 10
212.8520
 20
-178.8843
 30
0.0000
 42
1.0000
  0
SEQEND
  8
0
  0
POLYLINE
  8
21
 66
1
 10
0.0000
 20
0.0000
 30
0.0000
 40
0.0000
 41
0.0000
 70
1
  0
VERTEX
  8
21
 10
210.5772
 20
-177.4244
 30
0.0000
  0
VERTEX
  8
21
 10
209.8844
 20
-177.0244
 30
0.0000
 42
1.0000
  0
VERTEX
  8
21
 10
209.8209
 20
-177.1343
 30
0.0000
  0
VERTEX
  8
21
 10
210.5137
 20
-177.5343
 30
0.0000
 42
1.0000
  0
SEQEND
  8
0
  0
POLYLINE
  8
21
 66
1
 10
0.0000
 20
0.0000
 30
0.0000
 40
0.0000
 41
0.0000
 70
1
  0
VERTEX
  8
21
 10
209.9076
 20
-177.1111
 30
0.0000
  0
VERTEX
  8
21
 10
210.3076
 20
-176.4183
 30
0.0000
 42
1.0000
  0
VERTEX
  8
21
 10
210.1977
 20
-176.3548
 30
0.0000
  0
VERTEX
  8
21
 10
209.7977
 20
-177.0476
 30
0.0000
 42
1.0000
  0
SEQEND
  8
0
  0
POLYLINE
  8
21
 66
1
 10
0.0000
 20
0.0000
 30
0.0000
 40
0.0000
 41
0.0000
 70
1
  0
VERTEX
  8
21
 10
210.3076
 20
-176.4183
 30
0.0000
  0
VERTEX
  8
21
 10
211.7576
 20
-173.9068
 30
0.0000
 42
1.0000
  0
VERTEX
  8
21
 10
211.6477
 20
-173.8433
 30
0.0000
  0
VERTEX
  8
21
 10
210.1977
 20
-176.3548
 30
0.0000
 42
1.0000
  0
SEQEND
  8
0
  0
POLYLINE
  8
21
 66
1
 10
0.0000
 20
0.0000
 30
0.0000
 40
0.0000
 41
0.0000
 70
1
  0
VERTEX
  8
21
 10
211.6709
 20
-173.9300
 30
0.0000
  0
VERTEX
  8
21
 10
214.7020
 20
-175.6800
 30
0.0000
 42
1.0000
  0
VERTEX
  8
21
 10
214.7655
 20
-175.5701
 30
0.0000
  0
VERTEX
  8
21
 10
211.7344
 20
-173.8201
 30
0.0000
 42
1.0000
  0
SEQEND
  8
0
  0
POLYLINE
  8
21
 66
1
 10
0.0000
 20
0.0000
 30
0.0000
 40
0.0000
 41
0.0000
 70
1
  0
VERTEX
  8
21
 10
210.6068
 20
-177.4629
 30
0.0000
  0
VERTEX
  8
21
 10
210.3140
 20
-176.3701
 30
0.0000
 42
1.0000
  0
VERTEX
  8
21
 10
210.1913
 20
-176.4030
 30
0.0000
  0
VERTEX
  8
21
 10
210.4841
 20
-177.4958
 30
0.0000
 42
1.0000
  0
SEQEND
  8
0
  0
LINE
  8
21
 10
212.1424
 20
-174.0135
 30
0.0000
 11
212.4440
 21
-178.6909
 31
0.0000
  0
LINE
  8
21
 10
214.3940
 20
-175.3135
 30
0.0000
 11
210.1924
 21
-177.3909
 31
0.0000
  0
CIRCLE
  8
21
 10
212.2932
 20
-176.3522
 30
0.0000
 40
1.4903
  0
CIRCLE
  8
21
 10
212.2932
 20
-176.3522
 30
0.0000
 40
1.5903
  0
CIRCLE
  8
21
 10
212.2932
 20
-176.3522
 30
0.0000
 40
1.2842
  0
CIRCLE
  8
21
 10
212.2932
 20
-176.3522
 30
0.0000
 40
1.3842
  0
POLYLINE
  8
21
 66
1
 10
0.0000
 20
0.0000
 30
0.0000
 40
0.0000
 41
0.0000
 70
1
  0
VERTEX
  8
21
 10
218.6502
 20
-172.9508
 30
0.0000
  0
VERTEX
  8
21
 10
215.4459
 20
-174.8008
 30
0.0000
 42
1.0000
  0
VERTEX
  8
21
 10
215.5094
 20
-174.9107
 30
0.0000
  0
VERTEX
  8
21
 10
218.7137
 20
-173.0607
 30
0.0000
 42
1.0000
  0
SEQEND
  8
0
  0
POLYLINE
  8
21
 66
1
 10
0.0000
 20
0.0000
 30
0.0000
 40
0.0000
 41
0.0000
 70
1
  0
VERTEX
  8
21
 10
215.5326
 20
-174.8240
 30
0.0000
  0
VERTEX
  8
21
 10
214.1826
 20
-172.4857
 30
0.0000
 42
1.0000
  0
VERTEX
  8
21
 10
214.0727
 20
-172.5492
 30
0.0000
  0
VERTEX
  8
21
 10
215.4227
 20
-174.8875
 30
0.0000
 42
1.0000
  0
SEQEND
  8
0
  0
POLYLINE
  8
21
 66
1
 10
0.0000
 20
0.0000
 30
0.0000
 40
0.0000
 41
0.0000
 70
1
  0
VERTEX
  8
21
 10
214.1826
 20
-172.4857
 30
0.0000
  0
VERTEX
  8
21
 10
213.7826
 20
-171.7929
 30
0.0000
 42
1.0000
  0
VERTEX
  8
21
 10
213.6727
 20
-171.8564
 30
0.0000
  0
VERTEX
  8
21
 10
214.0727
 20
-172.5492
 30
0.0000
 42
1.0000
  0
SEQEND
  8
0
  0
POLYLINE
  8
21
 66
1
 10
0.0000
 20
0.0000
 30
0.0000
 40
0.0000
 41
0.0000
 70
1
  0
VERTEX
  8
21
 10
213.7594
 20
-171.8796
 30
0.0000
  0
VERTEX
  8
21
 10
214.4522
 20
-171.4796
 30
0.0000
 42
1.0000
  0
VERTEX
  8
21
 10
214.3887
 20
-171.3697
 30
0.0000
  0
VERTEX
  8
21
 10
213.6959
 20
-171.7697
 30
0.0000
 42
1.0000
  0
SEQEND
  8
0
  0
POLYLINE
  8
21
 66
1
 10
0.0000
 20
0.0000
 30
0.0000
 40
0.0000
 41
0.0000
 70
1
  0
VERTEX
  8
21
 10
214.4522
 20
-171.4796
 30
0.0000
  0
VERTEX
  8
21
 10
216.9637
 20
-170.0296
 30
0.0000
 42
1.0000
  0
VERTEX
  8
21
 10
216.9002
 20
-169.9197
 30
0.0000
  0
VERTEX
  8
21
 10
214.3887
 20
-171.3697
 30
0.0000
 42
1.0000
  0
SEQEND
  8
0
  0
POLYLINE
  8
21
 66
1
 10
0.0000
 20
0.0000
 30
0.0000
 40
0.0000
 41
0.0000
 70
1
  0
VERTEX
  8
21
 10
216.8770
 20
-170.0064
 30
0.0000
  0
VERTEX
  8
21
 10
218.6270
 20
-173.0375
 30
0.0000
 42
1.0000
  0
VERTEX
  8
21
 10
218.7369
 20
-172.9740
 30
0.0000
  0
VERTEX
  8
21
 10
216.9869
 20
-169.9429
 30
0.0000
 42
1.0000
  0
SEQEND
  8
0
  0
POLYLINE
  8
21
 66
1
 10
0.0000
 20
0.0000
 30
0.0000
 40
0.0000
 41
0.0000
 70
1
  0
VERTEX
  8
21
 10
214.1890
 20
-172.5339
 30
0.0000
  0
VERTEX
  8
21
 10
214.4818
 20
-171.4411
 30
0.0000
 42
1.0000
  0
VERTEX
  8
21
 10
214.3591
 20
-171.4082
 30
0.0000
  0
VERTEX
  8
21
 10
214.0663
 20
-172.5010
 30
0.0000
 42
1.0000
  0
SEQEND
  8
0
  0
LINE
  8
21
 10
217.2435
 20
-170.3144
 30
0.0000
 11
215.1661
 21
-174.5160
 31
0.0000
  0
LINE
  8
21
 10
218.5435
 20
-172.5660
 30
0.0000
 11
213.8661
 21
-172.2644
 31
0.0000
  0
CIRCLE
  8
21
 10
216.2048
 20
-172.4152
 30
0.0000
 40
1.4903
  0
CIRCLE
  8
21
 10
216.2048
 20
-172.4152
 30
0.0000
 40
1.5903
  0
CIRCLE
  8
21
 10
216.2048
 20
-172.4152
 30
0.0000
 40
1.2842
  0
CIRCLE
  8
21
 10
216.2048
 20
-172.4152
 30
0.0000
 40
1.3842
  0
POLYLINE
  8
21
 66
1
 10
0.0000
 20
0.0000
 30
0.0000
 40
0.0000
 41
0.0000
 70
1
  0
VERTEX
  8
21
 10
223.3380
 20
-177.7847
 30
0.0000
  0
VERTEX
  8
21
 10
219.6380
 20
-177.7847
 30
0.0000
 42
1.0000
  0
VERTEX
  8
21
 10
219.6380
 20
-177.9117
 30
0.0000
  0
VERTEX
  8
21
 10
223.3380
 20
-177.9117
 30
0.0000
 42
1.0000
  0
SEQEND
  8
0
  0
POLYLINE
  8
21
 66
1
 10
0.0000
 20
0.0000
 30
0.0000
 40
0.0000
 41
0.0000
 70
1
  0
VERTEX
  8
21
 10
219.7015
 20
-177.8482
 30
0.0000
  0
VERTEX
  8
21
 10
219.7015
 20
-175.1482
 30
0.0000
 42
1.0000
  0
VERTEX
  8
21
 10
219.5745
 20
-175.1482
 30
0.0000
  0
VERTEX
  8
21
 10
219.5745
 20
-177.8482
 30
0.0000
 42
1.0000
  0
SEQEND
  8
0
  0
POLYLINE
  8
21
 66
1
 10
0.0000
 20
0.0000
 30
0.0000
 40
0.0000
 41
0.0000
 70
1
  0
VERTEX
  8
21
 10
219.7015
 20
-175.1482
 30
0.0000
  0
VERTEX
  8
21
 10
219.7015
 20
-174.3482
 30
0.0000
 42
1.0000
  0
VERTEX
  8
21
 10
219.5745
 20
-174.3482
 30
0.0000
  0
VERTEX
  8
21
 10
219.5745
 20
-175.1482
 30
0.0000
 42
1.0000
  0
SEQEND
  8
0
  0
POLYLINE
  8
21
 66
1
 10
0.0000
 20
0.0000
 30
0.0000
 40
0.0000
 41
0.0000
 70
1
  0
VERTEX
  8
21
 10
219.6380
 20
-174.4117
 30
0.0000
  0
VERTEX
  8
21
 10
220.4380
 20
-174.4117
 30
0.0000
 42
1.0000
  0
VERTEX
  8
21
 10
220.4380
 20
-174.2847
 30
0.0000
  0
VERTEX
  8
21
 10
219.6380
 20
-174.2847
 30
0.0000
 42
1.0000
  0
SEQEND
  8
0
  0
POLYLINE
  8
21
 66
1
 10
0.0000
 20
0.0000
 30
0.0000
 40
0.0000
 41
0.0000
 70
1
  0
VERTEX
  8
21
 10
220.4380
 20
-174.4117
 30
0.0000
  0
VERTEX
  8
21
 10
223.3380
 20
-174.4117
 30
0.0000
 42
1.0000
  0
VERTEX
  8
21
 10
223.3380
 20
-174.2847
 30
0.0000
  0
VERTEX
  8
21
 10
220.4380
 20
-174.2847
 30
0.0000
 42
1.0000
  0
SEQEND
  8
0
  0
POLYLINE
  8
21
 66
1
 10
0.0000
 20
0.0000
 30
0.0000
 40
0.0000
 41
0.0000
 70
1
  0
VERTEX
  8
21
 10
223.2745
 20
-174.3482
 30
0.0000
  0
VERTEX
  8
21
 10
223.2745
 20
-177.8482
 30
0.0000
 42
1.0000
  0
VERTEX
  8
21
 10
223.4015
 20
-177.8482
 30
0.0000
  0
VERTEX
  8
21
 10
223.4015
 20
-174.3482
 30
0.0000
 42
1.0000
  0
SEQEND
  8
0
  0
POLYLINE
  8
21
 66
1
 10
0.0000
 20
0.0000
 30
0.0000
 40
0.0000
 41
0.0000
 70
1
  0
VERTEX
  8
21
 10
219.6829
 20
-175.1931
 30
0.0000
  0
VERTEX
  8
21
 10
220.4829
 20
-174.3931
 30
0.0000
 42
1.0000
  0
VERTEX
  8
21
 10
220.3931
 20
-174.3033
 30
0.0000
  0
VERTEX
  8
21
 10
219.5931
 20
-175.1033
 30
0.0000
 42
1.0000
  0
SEQEND
  8
0
  0
LINE
  8
21
 10
223.4380
 20
-174.7982
 30
0.0000
 11
219.5380
 21
-177.3982
 31
0.0000
  0
LINE
  8
21
 10
223.4380
 20
-177.3982
 30
0.0000
 11
219.5380
 21
-174.7982
 31
0.0000
  0
CIRCLE
  8
21
 10
221.4880
 20
-176.0982
 30
0.0000
 40
1.4903
  0
CIRCLE
  8
21
 10
221.4880
 20
-176.0982
 30
0.0000
 40
1.5903
  0
CIRCLE
  8
21
 10
221.4880
 20
-176.0982
 30
0.0000
 40
1.2842
  0
CIRCLE
  8
21
 10
221.4880
 20
-176.0982
 30
0.0000
 40
1.3842
  0
POLYLINE
  8
21
 66
1
 10
0.0000
 20
0.0000
 30
0.0000
 40
0.0000
 41
0.0000
 70
1
  0
VERTEX
  8
21
 10
225.7276
 20
-181.3122
 30
0.0000
  0
VERTEX
  8
21
 10
223.8776
 20
-178.1079
 30
0.0000
 42
1.0000
  0
VERTEX
  8
21
 10
223.7677
 20
-178.1714
 30
0.0000
  0
VERTEX
  8
21
 10
225.6177
 20
-181.3757
 30
0.0000
 42
1.0000
  0
SEQEND
  8
0
  0
POLYLINE
  8
21
 66
1
 10
0.0000
 20
0.0000
 30
0.0000
 40
0.0000
 41
0.0000
 70
1
  0
VERTEX
  8
21
 10
223.8544
 20
-178.1946
 30
0.0000
  0
VERTEX
  8
21
 10
226.1927
 20
-176.8446
 30
0.0000
 42
1.0000
  0
VERTEX
  8
21
 10
226.1292
 20
-176.7347
 30
0.0000
  0
VERTEX
  8
21
 10
223.7909
 20
-178.0847
 30
0.0000
 42
1.0000
  0
SEQEND
  8
0
  0
POLYLINE
  8
21
 66
1
 10
0.0000
 20
0.0000
 30
0.0000
 40
0.0000
 41
0.0000
 70
1
  0
VERTEX
  8
21
 10
226.1927
 20
-176.8446
 30
0.0000
  0
VERTEX
  8
21
 10
226.8855
 20
-176.4446
 30
0.0000
 42
1.0000
  0
VERTEX
  8
21
 10
226.8220
 20
-176.3347
 30
0.0000
  0
VERTEX
  8
21
 10
226.1292
 20
-176.7347
 30
0.0000
 42
1.0000
  0
SEQEND
  8
0
  0
POLYLINE
  8
21
 66
1
 10
0.0000
 20
0.0000
 30
0.0000
 40
0.0000
 41
0.0000
 70
1
  0
VERTEX
  8
21
 10
226.7988
 20
-176.4214
 30
0.0000
  0
VERTEX
  8
21
 10
227.1988
 20
-177.1142
 30
0.0000
 42
1.0000
  0
VERTEX
  8
21
 10
227.3087
 20
-177.0507
 30
0.0000
  0
VERTEX
  8
21
 10
226.9087
 20
-176.3579
 30
0.0000
 42
1.0000
  0
SEQEND
  8
0
  0
POLYLINE
  8
21
 66
1
 10
0.0000
 20
0.0000
 30
0.0000
 40
0.0000
 41
0.0000
 70
1
  0
VERTEX
  8
21
 10
227.1988
 20
-177.1142
 30
0.0000
  0
VERTEX
  8
21
 10
228.6488
 20
-179.6257
 30
0.0000
 42
1.0000
  0
VERTEX
  8
21
 10
228.7587
 20
-179.5622
 30
0.0000
  0
VERTEX
  8
21
 10
227.3087
 20
-177.0507
 30
0.0000
 42
1.0000
  0
SEQEND
  8
0
  0
POLYLINE
  8
21
 66
1
 10
0.0000
 20
0.0000
 30
0.0000
 40
0.0000
 41
0.0000
 70
1
  0
VERTEX
  8
21
 10
228.6720
 20
-179.5390
 30
0.0000
  0
VERTEX
  8
21
 10
225.6409
 20
-181.2890
 30
0.0000
 42
1.0000
  0
VERTEX
  8
21
 10
225.7044
 20
-181.3989
 30
0.0000
  0
VERTEX
  8
21
 10
228.7355
 20
-179.6489
 30
0.0000
 42
1.0000
  0
SEQEND
  8
0
  0
POLYLINE
  8
21
 66
1
 10
0.0000
 20
0.0000
 30
0.0000
 40
0.0000
 41
0.0000
 70
1
  0
VERTEX
  8
21
 10
226.1445
 20
-176.8510
 30
0.0000
  0
VERTEX
  8
21
 10
227.2373
 20
-177.1438
 30
0.0000
 42
1.0000
  0
VERTEX
  8
21
 10
227.2702
 20
-177.0211
 30
0.0000
  0
VERTEX
  8
21
 10
226.1774
 20
-176.7283
 30
0.0000
 42
1.0000
  0
SEQEND
  8
0
  0
LINE
  8
21
 10
228.3640
 20
-179.9055
 30
0.0000
 11
224.1624
 21
-177.8281
 31
0.0000
  0
LINE
  8
21
 10
226.1124
 20
-181.2055
 30
0.0000
 11
226.4140
 21
-176.5281
 31
0.0000
  0
CIRCLE
  8
21
 10
226.2632
 20
-178.8668
 30
0.0000
 40
1.4903
  0
CIRCLE
  8
21
 10
226.2632
 20
-178.8668
 30
0.0000
 40
1.5903
  0
CIRCLE
  8
21
 10
226.2632
 20
-178.8668
 30
0.0000
 40
1.2842
  0
CIRCLE
  8
21
 10
226.2632
 20
-178.8668
 30
0.0000
 40
1.3842
  0
POLYLINE
  8
21
 66
1
 10
0.0000
 20
0.0000
 30
0.0000
 40
0.0000
 41
0.0000
 70
1
  0
VERTEX
  8
21
 10
223.8776
 20
-185.1121
 30
0.0000
  0
VERTEX
  8
21
 10
225.7276
 20
-181.9078
 30
0.0000
 42
1.0000
  0
VERTEX
  8
21
 10
225.6177
 20
-181.8443
 30
0.0000
  0
VERTEX
  8
21
 10
223.7677
 20
-185.0486
 30
0.0000
 42
1.0000
  0
SEQEND
  8
0
  0
POLYLINE
  8
21
 66
1
 10
0.0000
 20
0.0000
 30
0.0000
 40
0.0000
 41
0.0000
 70
1
  0
VERTEX
  8
21
 10
225.6409
 20
-181.9310
 30
0.0000
  0
VERTEX
  8
21
 10
227.9792
 20
-183.2810
 30
0.0000
 42
1.0000
  0
VERTEX
  8
21
 10
228.0427
 20
-183.1711
 30
0.0000
  0
VERTEX
  8
21
 10
225.7044
 20
-181.8211
 30
0.0000
 42
1.0000
  0
SEQEND
  8
0
  0
POLYLINE
  8
21
 66
1
 10
0.0000
 20
0.0000
 30
0.0000
 40
0.0000
 41
0.0000
 70
1
  0
VERTEX
  8
21
 10
227.9792
 20
-183.2810
 30
0.0000
  0
VERTEX
  8
21
 10
228.6720
 20
-183.6810
 30
0.0000
 42
1.0000
  0
VERTEX
  8
21
 10
228.7355
 20
-183.5711
 30
0.0000
  0
VERTEX
  8
21
 10
228.0427
 20
-183.1711
 30
0.0000
 42
1.0000
  0
SEQEND
  8
0
  0
POLYLINE
  8
21
 66
1
 10
0.0000
 20
0.0000
 30
0.0000
 40
0.0000
 41
0.0000
 70
1
  0
VERTEX
  8
21
 10
228.6488
 20
-183.5943
 30
0.0000
  0
VERTEX
  8
21
 10
228.2488
 20
-184.2871
 30
0.0000
 42
1.0000
  0
VERTEX
  8
21
 10
228.3587
 20
-184.3506
 30
0.0000
  0
VERTEX
  8
21
 10
228.7587
 20
-183.6578
 30
0.0000
 42
1.0000
  0
SEQEND
  8
0
  0
POLYLINE
  8
21
 66
1
 10
0.0000
 20
0.0000
 30
0.0000
 40
0.0000
 41
0.0000
 70
1
  0
VERTEX
  8
21
 10
228.2488
 20
-184.2871
 30
0.0000
  0
VERTEX
  8
21
 10
226.7988
 20
-186.7986
 30
0.0000
 42
1.0000
  0
VERTEX
  8
21
 10
226.9087
 20
-186.8621
 30
0.0000
  0
VERTEX
  8
21
 10
228.3587
 20
-184.3506
 30
0.0000
 42
1.0000
  0
SEQEND
  8
0
  0
POLYLINE
  8
21
 66
1
 10
0.0000
 20
0.0000
 30
0.0000
 40
0.0000
 41
0.0000
 70
1
  0
VERTEX
  8
21
 10
226.8855
 20
-186.7754
 30
0.0000
  0
VERTEX
  8
21
 10
223.8544
 20
-185.0254
 30
0.0000
 42
1.0000
  0
VERTEX
  8
21
 10
223.7909
 20
-185.1353
 30
0.0000
  0
VERTEX
  8
21
 10
226.8220
 20
-186.8853
 30
0.0000
 42
1.0000
  0
SEQEND
  8
0
  0
POLYLINE
  8
21
 66
1
 10
0.0000
 20
0.0000
 30
0.0000
 40
0.0000
 41
0.0000
 70
1
  0
VERTEX
  8
21
 10
227.9496
 20
-183.2425
 30
0.0000
  0
VERTEX
  8
21
 10
228.2424
 20
-184.3353
 30
0.0000
 42
1.0000
  0
VERTEX
  8
21
 10
228.3651
 20
-184.3024
 30
0.0000
  0
VERTEX
  8
21
 10
228.0723
 20
-183.2096
 30
0.0000
 42
1.0000
  0
SEQEND
  8
0
  0
LINE
  8
21
 10
226.4140
 20
-186.6919
 30
0.0000
 11
226.1124
 21
-182.0145
 31
0.0000
  0
LINE
  8
21
 10
224.1624
 20
-185.3919
 30
0.0000
 11
228.3640
 21
-183.3145
 31
0.0000
  0
CIRCLE
  8
21
 10
226.2632
 20
-184.3532
 30
0.0000
 40
1.4903
  0
CIRCLE
  8
21
 10
226.2632
 20
-184.3532
 30
0.0000
 40
1.5903
  0
CIRCLE
  8
21
 10
226.2632
 20
-184.3532
 30
0.0000
 40
1.2842
  0
CIRCLE
  8
21
 10
226.2632
 20
-184.3532
 30
0.0000
 40
1.3842
  0
POLYLINE
  8
21
 66
1
 10
0.0000
 20
0.0000
 30
0.0000
 40
0.0000
 41
0.0000
 70
1
  0
VERTEX
  8
21
 10
219.6380
 20
-185.4353
 30
0.0000
  0
VERTEX
  8
21
 10
223.3380
 20
-185.4353
 30
0.0000
 42
1.0000
  0
VERTEX
  8
21
 10
223.3380
 20
-185.3083
 30
0.0000
  0
VERTEX
  8
21
 10
219.6380
 20
-185.3083
 30
0.0000
 42
1.0000
  0
SEQEND
  8
0
  0
POLYLINE
  8
21
 66
1
 10
0.0000
 20
0.0000
 30
0.0000
 40
0.0000
 41
0.0000
 70
1
  0
VERTEX
  8
21
 10
223.2745
 20
-185.3718
 30
0.0000
  0
VERTEX
  8
21
 10
223.2745
 20
-188.0718
 30
0.0000
 42
1.0000
  0
VERTEX
  8
21
 10
223.4015
 20
-188.0718
 30
0.0000
  0
VERTEX
  8
21
 10
223.4015
 20
-185.3718
 30
0.0000
 42
1.0000
  0
SEQEND
  8
0
  0
POLYLINE
  8
21
 66
1
 10
0.0000
 20
0.0000
 30
0.0000
 40
0.0000
 41
0.0000
 70
1
  0
VERTEX
  8
21
 10
223.2745
 20
-188.0718
 30
0.0000
  0
VERTEX
  8
21
 10
223.2745
 20
-188.8718
 30
0.0000
 42
1.0000
  0
VERTEX
  8
21
 10
223.4015
 20
-188.8718
 30
0.0000
  0
VERTEX
  8
21
 10
223.4015
 20
-188.0718
 30
0.0000
 42
1.0000
  0
SEQEND
  8
0
  0
POLYLINE
  8
21
 66
1
 10
0.0000
 20
0.0000
 30
0.0000
 40
0.0000
 41
0.0000
 70
1
  0
VERTEX
  8
21
 10
223.3380
 20
-188.8083
 30
0.0000
  0
VERTEX
  8
21
 10
222.5380
 20
-188.8083
 30
0.0000
 42
1.0000
  0
VERTEX
  8
21
 10
222.5380
 20
-188.9353
 30
0.0000
  0
VERTEX
  8
21
 10
223.3380
 20
-188.9353
 30
0.0000
 42
1.0000
  0
SEQEND
  8
0
  0
POLYLINE
  8
21
 66
1
 10
0.0000
 20
0.0000
 30
0.0000
 40
0.0000
 41
0.0000
 70
1
  0
VERTEX
  8
21
 10
222.5380
 20
-188.8083
 30
0.0000
  0
VERTEX
  8
21
 10
219.6380
 20
-188.8083
 30
0.0000
 42
1.0000
  0
VERTEX
  8
21
 10
219.6380
 20
-188.9353
 30
0.0000
  0
VERTEX
  8
21
 10
222.5380
 20
-188.9353
 30
0.0000
 42
1.0000
  0
SEQEND
  8
0
  0
POLYLINE
  8
21
 66
1
 10
0.0000
 20
0.0000
 30
0.0000
 40
0.0000
 41
0.0000
 70
1
  0
VERTEX
  8
21
 10
219.7015
 20
-188.8718
 30
0.0000
  0
VERTEX
  8
21
 10
219.7015
 20
-185.3718
 30
0.0000
 42
1.0000
  0
VERTEX
  8
21
 10
219.5745
 20
-185.3718
 30
0.0000
  0
VERTEX
  8
21
 10
219.5745
 20
-188.8718
 30
0.0000
 42
1.0000
  0
SEQEND
  8
0
  0
POLYLINE
  8
21
 66
1
 10
0.0000
 20
0.0000
 30
0.0000
 40
0.0000
 41
0.0000
 70
1
  0
VERTEX
  8
21
 10
223.2931
 20
-188.0269
 30
0.0000
  0
VERTEX
  8
21
 10
222.4931
 20
-188.8269
 30
0.0000
 42
1.0000
  0
VERTEX
  8
21
 10
222.5829
 20
-188.9167
 30
0.0000
  0
VERTEX
  8
21
 10
223.3829
 20
-188.1167
 30
0.0000
 42
1.0000
  0
SEQEND
  8
0
  0
LINE
  8
21
 10
219.5380
 20
-188.4218
 30
0.0000
 11
223.4380
 21
-185.8218
 31
0.0000
  0
LINE
  8
21
 10
219.5380
 20
-185.8218
 30
0.0000
 11
223.4380
 21
-188.4218
 31
0.0000
  0
CIRCLE
  8
21
 10
221.4880
 20
-187.1218
 30
0.0000
 40
1.4903
  0
CIRCLE
  8
21
 10
221.4880
 20
-187.1218
 30
0.0000
 40
1.5903
  0
CIRCLE
  8
21
 10
221.4880
 20
-187.1218
 30
0.0000
 40
1.2842
  0
CIRCLE
  8
21
 10
221.4880
 20
-187.1218
 30
0.0000
 40
1.3842
  0
POLYLINE
  8
21
 66
1
 10
0.0000
 20
0.0000
 30
0.0000
 40
0.0000
 41
0.0000
 70
1
  0
VERTEX
  8
21
 10
217.2738
 20
-181.9332
 30
0.0000
  0
VERTEX
  8
21
 10
219.1238
 20
-185.1375
 30
0.0000
 42
1.0000
  0
VERTEX
  8
21
 10
219.2337
 20
-185.0740
 30
0.0000
  0
VERTEX
  8
21
 10
217.3837
 20
-181.8697
 30
0.0000
 42
1.0000
  0
SEQEND
  8
0
  0
POLYLINE
  8
21
 66
1
 10
0.0000
 20
0.0000
 30
0.0000
 40
0.0000
 41
0.0000
 70
1
  0
VERTEX
  8
21
 10
219.1470
 20
-185.0508
 30
0.0000
  0
VERTEX
  8
21
 10
216.8087
 20
-186.4008
 30
0.0000
 42
1.0000
  0
VERTEX
  8
21
 10
216.8722
 20
-186.5107
 30
0.0000
  0
VERTEX
  8
21
 10
219.2105
 20
-185.1607
 30
0.0000
 42
1.0000
  0
SEQEND
  8
0
  0
POLYLINE
  8
21
 66
1
 10
0.0000
 20
0.0000
 30
0.0000
 40
0.0000
 41
0.0000
 70
1
  0
VERTEX
  8
21
 10
216.8087
 20
-186.4008
 30
0.0000
  0
VERTEX
  8
21
 10
216.1159
 20
-186.8008
 30
0.0000
 42
1.0000
  0
VERTEX
  8
21
 10
216.1794
 20
-186.9107
 30
0.0000
  0
VERTEX
  8
21
 10
216.8722
 20
-186.5107
 30
0.0000
 42
1.0000
  0
SEQEND
  8
0
  0
POLYLINE
  8
21
 66
1
 10
0.0000
 20
0.0000
 30
0.0000
 40
0.0000
 41
0.0000
 70
1
  0
VERTEX
  8
21
 10
216.2026
 20
-186.8240
 30
0.0000
  0
VERTEX
  8
21
 10
215.8026
 20
-186.1312
 30
0.0000
 42
1.0000
  0
VERTEX
  8
21
 10
215.6927
 20
-186.1947
 30
0.0000
  0
VERTEX
  8
21
 10
216.0927
 20
-186.8875
 30
0.0000
 42
1.0000
  0
SEQEND
  8
0
  0
POLYLINE
  8
21
 66
1
 10
0.0000
 20
0.0000
 30
0.0000
 40
0.0000
 41
0.0000
 70
1
  0
VERTEX
  8
21
 10
215.8026
 20
-186.1312
 30
0.0000
  0
VERTEX
  8
21
 10
214.3526
 20
-183.6197
 30
0.0000
 42
1.0000
  0
VERTEX
  8
21
 10
214.2427
 20
-183.6832
 30
0.0000
  0
VERTEX
  8
21
 10
215.6927
 20
-186.1947
 30
0.0000
 42
1.0000
  0
SEQEND
  8
0
  0
POLYLINE
  8
21
 66
1
 10
0.0000
 20
0.0000
 30
0.0000
 40
0.0000
 41
0.0000
 70
1
  0
VERTEX
  8
21
 10
214.3294
 20
-183.7064
 30
0.0000
  0
VERTEX
  8
21
 10
217.3605
 20
-181.9564
 30
0.0000
 42
1.0000
  0
VERTEX
  8
21
 10
217.2970
 20
-181.8465
 30
0.0000
  0
VERTEX
  8
21
 10
214.2659
 20
-183.5965
 30
0.0000
 42
1.0000
  0
SEQEND
  8
0
  0
POLYLINE
  8
21
 66
1
 10
0.0000
 20
0.0000
 30
0.0000
 40
0.0000
 41
0.0000
 70
1
  0
VERTEX
  8
21
 10
216.8569
 20
-186.3944
 30
0.0000
  0
VERTEX
  8
21
 10
215.7641
 20
-186.1016
 30
0.0000
 42
1.0000
  0
VERTEX
  8
21
 10
215.7312
 20
-186.2243
 30
0.0000
  0
VERTEX
  8
21
 10
216.8240
 20
-186.5171
 30
0.0000
 42
1.0000
  0
SEQEND
  8
0
  0
LINE
  8
21
 10
214.6374
 20
-183.3399
 30
0.0000
 11
218.8390
 21
-185.4173
 31
0.0000
  0
LINE
  8
21
 10
216.8890
 20
-182.0399
 30
0.0000
 11
216.5874
 21
-186.7173
 31
0.0000
  0
CIRCLE
  8
21
 10
216.7382
 20
-184.3786
 30
0.0000
 40
1.4903
  0
CIRCLE
  8
21
 10
216.7382
 20
-184.3786
 30
0.0000
 40
1.5903
  0
CIRCLE
  8
21
 10
216.7382
 20
-184.3786
 30
0.0000
 40
1.2842
  0
CIRCLE
  8
21
 10
216.7382
 20
-184.3786
 30
0.0000
 40
1.3842
  0
POLYLINE
  8
21
 66
1
 10
0.0000
 20
0.0000
 30
0.0000
 40
0.0000
 41
0.0000
 70
1
  0
VERTEX
  8
21
 10
219.0984
 20
-178.1333
 30
0.0000
  0
VERTEX
  8
21
 10
217.2484
 20
-181.3376
 30
0.0000
 42
1.0000
  0
VERTEX
  8
21
 10
217.3583
 20
-181.4011
 30
0.0000
  0
VERTEX
  8
21
 10
219.2083
 20
-178.1968
 30
0.0000
 42
1.0000
  0
SEQEND
  8
0
  0
POLYLINE
  8
21
 66
1
 10
0.0000
 20
0.0000
 30
0.0000
 40
0.0000
 41
0.0000
 70
1
  0
VERTEX
  8
21
 10
217.3351
 20
-181.3144
 30
0.0000
  0
VERTEX
  8
21
 10
214.9968
 20
-179.9644
 30
0.0000
 42
1.0000
  0
VERTEX
  8
21
 10
214.9333
 20
-180.0743
 30
0.0000
  0
VERTEX
  8
21
 10
217.2716
 20
-181.4243
 30
0.0000
 42
1.0000
  0
SEQEND
  8
0
  0
POLYLINE
  8
21
 66
1
 10
0.0000
 20
0.0000
 30
0.0000
 40
0.0000
 41
0.0000
 70
1
  0
VERTEX
  8
21
 10
214.9968
 20
-179.9644
 30
0.0000
  0
VERTEX
  8
21
 10
214.3040
 20
-179.5644
 30
0.0000
 42
1.0000
  0
VERTEX
  8
21
 10
214.2405
 20
-179.6743
 30
0.0000
  0
VERTEX
  8
21
 10
214.9333
 20
-180.0743
 30
0.0000
 42
1.0000
  0
SEQEND
  8
0
  0
POLYLINE
  8
21
 66
1
 10
0.0000
 20
0.0000
 30
0.0000
 40
0.0000
 41
0.0000
 70
1
  0
VERTEX
  8
21
 10
214.3272
 20
-179.6511
 30
0.0000
  0
VERTEX
  8
21
 10
214.7272
 20
-178.9583
 30
0.0000
 42
1.0000
  0
VERTEX
  8
21
 10
214.6173
 20
-178.8948
 30
0.0000
  0
VERTEX
  8
21
 10
214.2173
 20
-179.5876
 30
0.0000
 42
1.0000
  0
SEQEND
  8
0
  0
POLYLINE
  8
21
 66
1
 10
0.0000
 20
0.0000
 30
0.0000
 40
0.0000
 41
0.0000
 70
1
  0
VERTEX
  8
21
 10
214.7272
 20
-178.9583
 30
0.0000
  0
VERTEX
  8
21
 10
216.1772
 20
-176.4468
 30
0.0000
 42
1.0000
  0
VERTEX
  8
21
 10
216.0673
 20
-176.3833
 30
0.0000
  0
VERTEX
  8
21
 10
214.6173
 20
-178.8948
 30
0.0000
 42
1.0000
  0
SEQEND
  8
0
  0
POLYLINE
  8
21
 66
1
 10
0.0000
 20
0.0000
 30
0.0000
 40
0.0000
 41
0.0000
 70
1
  0
VERTEX
  8
21
 10
216.0905
 20
-176.4700
 30
0.0000
  0
VERTEX
  8
21
 10
219.1216
 20
-178.2200
 30
0.0000
 42
1.0000
  0
VERTEX
  8
21
 10
219.1851
 20
-178.1101
 30
0.0000
  0
VERTEX
  8
21
 10
216.1540
 20
-176.3601
 30
0.0000
 42
1.0000
  0
SEQEND
  8
0
  0
POLYLINE
  8
21
 66
1
 10
0.0000
 20
0.0000
 30
0.0000
 40
0.0000
 41
0.0000
 70
1
  0
VERTEX
  8
21
 10
215.0264
 20
-180.0029
 30
0.0000
  0
VERTEX
  8
21
 10
214.7336
 20
-178.9101
 30
0.0000
 42
1.0000
  0
VERTEX
  8
21
 10
214.6109
 20
-178.9430
 30
0.0000
  0
VERTEX
  8
21
 10
214.9037
 20
-180.0358
 30
0.0000
 42
1.0000
  0
SEQEND
  8
0
  0
LINE
  8
21
 10
216.5620
 20
-176.5534
 30
0.0000
 11
216.8636
 21
-181.2309
 31
0.0000
  0
LINE
  8
21
 10
218.8136
 20
-177.8535
 30
0.0000
 11
214.6120
 21
-179.9309
 31
0.0000
  0
CIRCLE
  8
21
 10
216.7128
 20
-178.8922
 30
0.0000
 40
1.4903
  0
CIRCLE
  8
21
 10
216.7128
 20
-178.8922
 30
0.0000
 40
1.5903
  0
CIRCLE
  8
21
 10
216.7128
 20
-178.8922
 30
0.0000
 40
1.2842
  0
CIRCLE
  8
21
 10
216.7128
 20
-178.8922
 30
0.0000
 40
1.3842
  0
POLYLINE
  8
21
 66
1
 10
0.0000
 20
0.0000
 30
0.0000
 40
0.0000
 41
0.0000
 70
1
  0
VERTEX
  8
21
 10
219.6380
 20
-179.8981
 30
0.0000
  0
VERTEX
  8
21
 10
223.3380
 20
-179.8981
 30
0.0000
 42
1.0000
  0
VERTEX
  8
21
 10
223.3380
 20
-179.7711
 30
0.0000
  0
VERTEX
  8
21
 10
219.6380
 20
-179.7711
 30
0.0000
 42
1.0000
  0
SEQEND
  8
0
  0
POLYLINE
  8
21
 66
1
 10
0.0000
 20
0.0000
 30
0.0000
 40
0.0000
 41
0.0000
 70
1
  0
VERTEX
  8
21
 10
223.2745
 20
-179.8346
 30
0.0000
  0
VERTEX
  8
21
 10
223.2745
 20
-182.5346
 30
0.0000
 42
1.0000
  0
VERTEX
  8
21
 10
223.4015
 20
-182.5346
 30
0.0000
  0
VERTEX
  8
21
 10
223.4015
 20
-179.8346
 30
0.0000
 42
1.0000
  0
SEQEND
  8
0
  0
POLYLINE
  8
21
 66
1
 10
0.0000
 20
0.0000
 30
0.0000
 40
0.0000
 41
0.0000
 70
1
  0
VERTEX
  8
21
 10
223.2745
 20
-182.5346
 30
0.0000
  0
VERTEX
  8
21
 10
223.2745
 20
-183.3346
 30
0.0000
 42
1.0000
  0
VERTEX
  8
21
 10
223.4015
 20
-183.3346
 30
0.0000
  0
VERTEX
  8
21
 10
223.4015
 20
-182.5346
 30
0.0000
 42
1.0000
  0
SEQEND
  8
0
  0
POLYLINE
  8
21
 66
1
 10
0.0000
 20
0.0000
 30
0.0000
 40
0.0000
 41
0.0000
 70
1
  0
VERTEX
  8
21
 10
223.3380
 20
-183.2711
 30
0.0000
  0
VERTEX
  8
21
 10
222.5380
 20
-183.2711
 30
0.0000
 42
1.0000
  0
VERTEX
  8
21
 10
222.5380
 20
-183.3981
 30
0.0000
  0
VERTEX
  8
21
 10
223.3380
 20
-183.3981
 30
0.0000
 42
1.0000
  0
SEQEND
  8
0
  0
POLYLINE
  8
21
 66
1
 10
0.0000
 20
0.0000
 30
0.0000
 40
0.0000
 41
0.0000
 70
1
  0
VERTEX
  8
21
 10
222.5380
 20
-183.2711
 30
0.0000
  0
VERTEX
  8
21
 10
219.6380
 20
-183.2711
 30
0.0000
 42
1.0000
  0
VERTEX
  8
21
 10
219.6380
 20
-183.3981
 30
0.0000
  0
VERTEX
  8
21
 10
222.5380
 20
-183.3981
 30
0.0000
 42
1.0000
  0
SEQEND
  8
0
  0
POLYLINE
  8
21
 66
1
 10
0.0000
 20
0.0000
 30
0.0000
 40
0.0000
 41
0.0000
 70
1
  0
VERTEX
  8
21
 10
219.7015
 20
-183.3346
 30
0.0000
  0
VERTEX
  8
21
 10
219.7015
 20
-179.8346
 30
0.0000
 42
1.0000
  0
VERTEX
  8
21
 10
219.5745
 20
-179.8346
 30
0.0000
  0
VERTEX
  8
21
 10
219.5745
 20
-183.3346
 30
0.0000
 42
1.0000
  0
SEQEND
  8
0
  0
POLYLINE
  8
21
 66
1
 10
0.0000
 20
0.0000
 30
0.0000
 40
0.0000
 41
0.0000
 70
1
  0
VERTEX
  8
21
 10
223.2931
 20
-182.4897
 30
0.0000
  0
VERTEX
  8
21
 10
222.4931
 20
-183.2897
 30
0.0000
 42
1.0000
  0
VERTEX
  8
21
 10
222.5829
 20
-183.3795
 30
0.0000
  0
VERTEX
  8
21
 10
223.3829
 20
-182.5795
 30
0.0000
 42
1.0000
  0
SEQEND
  8
0
  0
LINE
  8
21
 10
219.5380
 20
-182.8846
 30
0.0000
 11
223.4380
 21
-180.2846
 31
0.0000
  0
LINE
  8
21
 10
219.5380
 20
-180.2846
 30
0.0000
 11
223.4380
 21
-182.8846
 31
0.0000
  0
CIRCLE
  8
21
 10
221.4880
 20
-181.5846
 30
0.0000
 40
1.4903
  0
CIRCLE
  8
21
 10
221.4880
 20
-181.5846
 30
0.0000
 40
1.5903
  0
CIRCLE
  8
21
 10
221.4880
 20
-181.5846
 30
0.0000
 40
1.2842
  0
CIRCLE
  8
21
 10
221.4880
 20
-181.5846
 30
0.0000
 40
1.3842
  0
POLYLINE
  8
21
 66
1
 10
0.0000
 20
0.0000
 30
0.0000
 40
0.0000
 41
0.0000
 70
1
  0
VERTEX
  8
21
 10
223.3380
 20
-167.6501
 30
0.0000
  0
VERTEX
  8
21
 10
219.6380
 20
-167.6501
 30
0.0000
 42
1.0000
  0
VERTEX
  8
21
 10
219.6380
 20
-167.7771
 30
0.0000
  0
VERTEX
  8
21
 10
223.3380
 20
-167.7771
 30
0.0000
 42
1.0000
  0
SEQEND
  8
0
  0
POLYLINE
  8
21
 66
1
 10
0.0000
 20
0.0000
 30
0.0000
 40
0.0000
 41
0.0000
 70
1
  0
VERTEX
  8
21
 10
219.7015
 20
-167.7136
 30
0.0000
  0
VERTEX
  8
21
 10
219.7015
 20
-165.0136
 30
0.0000
 42
1.0000
  0
VERTEX
  8
21
 10
219.5745
 20
-165.0136
 30
0.0000
  0
VERTEX
  8
21
 10
219.5745
 20
-167.7136
 30
0.0000
 42
1.0000
  0
SEQEND
  8
0
  0
POLYLINE
  8
21
 66
1
 10
0.0000
 20
0.0000
 30
0.0000
 40
0.0000
 41
0.0000
 70
1
  0
VERTEX
  8
21
 10
219.7015
 20
-165.0136
 30
0.0000
  0
VERTEX
  8
21
 10
219.7015
 20
-164.2136
 30
0.0000
 42
1.0000
  0
VERTEX
  8
21
 10
219.5745
 20
-164.2136
 30
0.0000
  0
VERTEX
  8
21
 10
219.5745
 20
-165.0136
 30
0.0000
 42
1.0000
  0
SEQEND
  8
0
  0
POLYLINE
  8
21
 66
1
 10
0.0000
 20
0.0000
 30
0.0000
 40
0.0000
 41
0.0000
 70
1
  0
VERTEX
  8
21
 10
219.6380
 20
-164.2771
 30
0.0000
  0
VERTEX
  8
21
 10
220.4380
 20
-164.2771
 30
0.0000
 42
1.0000
  0
VERTEX
  8
21
 10
220.4380
 20
-164.1501
 30
0.0000
  0
VERTEX
  8
21
 10
219.6380
 20
-164.1501
 30
0.0000
 42
1.0000
  0
SEQEND
  8
0
  0
POLYLINE
  8
21
 66
1
 10
0.0000
 20
0.0000
 30
0.0000
 40
0.0000
 41
0.0000
 70
1
  0
VERTEX
  8
21
 10
220.4380
 20
-164.2771
 30
0.0000
  0
VERTEX
  8
21
 10
223.3380
 20
-164.2771
 30
0.0000
 42
1.0000
  0
VERTEX
  8
21
 10
223.3380
 20
-164.1501
 30
0.0000
  0
VERTEX
  8
21
 10
220.4380
 20
-164.1501
 30
0.0000
 42
1.0000
  0
SEQEND
  8
0
  0
POLYLINE
  8
21
 66
1
 10
0.0000
 20
0.0000
 30
0.0000
 40
0.0000
 41
0.0000
 70
1
  0
VERTEX
  8
21
 10
223.2745
 20
-164.2136
 30
0.0000
  0
VERTEX
  8
21
 10
223.2745
 20
-167.7136
 30
0.0000
 42
1.0000
  0
VERTEX
  8
21
 10
223.4015
 20
-167.7136
 30
0.0000
  0
VERTEX
  8
21
 10
223.4015
 20
-164.2136
 30
0.0000
 42
1.0000
  0
SEQEND
  8
0
  0
POLYLINE
  8
21
 66
1
 10
0.0000
 20
0.0000
 30
0.0000
 40
0.0000
 41
0.0000
 70
1
  0
VERTEX
  8
21
 10
219.6829
 20
-165.0585
 30
0.0000
  0
VERTEX
  8
21
 10
220.4829
 20
-164.2585
 30
0.0000
 42
1.0000
  0
VERTEX
  8
21
 10
220.3931
 20
-164.1687
 30
0.0000
  0
VERTEX
  8
21
 10
219.5931
 20
-164.9687
 30
0.0000
 42
1.0000
  0
SEQEND
  8
0
  0
LINE
  8
21
 10
223.4380
 20
-164.6636
 30
0.0000
 11
219.5380
 21
-167.2636
 31
0.0000
  0
LINE
  8
21
 10
223.4380
 20
-167.2636
 30
0.0000
 11
219.5380
 21
-164.6636
 31
0.0000
  0
CIRCLE
  8
21
 10
221.4880
 20
-165.9636
 30
0.0000
 40
1.4903
  0
CIRCLE
  8
21
 10
221.4880
 20
-165.9636
 30
0.0000
 40
1.5903
  0
CIRCLE
  8
21
 10
221.4880
 20
-165.9636
 30
0.0000
 40
1.2842
  0
CIRCLE
  8
21
 10
221.4880
 20
-165.9636
 30
0.0000
 40
1.3842
  0
POLYLINE
  8
21
 66
1
 10
0.0000
 20
0.0000
 30
0.0000
 40
0.0000
 41
0.0000
 70
1
  0
VERTEX
  8
21
 10
228.5208
 20
-169.3981
 30
0.0000
  0
VERTEX
  8
21
 10
225.1024
 20
-167.9822
 30
0.0000
 42
1.0000
  0
VERTEX
  8
21
 10
225.0538
 20
-168.0995
 30
0.0000
  0
VERTEX
  8
21
 10
228.4722
 20
-169.5154
 30
0.0000
 42
1.0000
  0
SEQEND
  8
0
  0
POLYLINE
  8
21
 66
1
 10
0.0000
 20
0.0000
 30
0.0000
 40
0.0000
 41
0.0000
 70
1
  0
VERTEX
  8
21
 10
225.1368
 20
-168.0651
 30
0.0000
  0
VERTEX
  8
21
 10
226.1700
 20
-165.5707
 30
0.0000
 42
1.0000
  0
VERTEX
  8
21
 10
226.0527
 20
-165.5220
 30
0.0000
  0
VERTEX
  8
21
 10
225.0195
 20
-168.0165
 30
0.0000
 42
1.0000
  0
SEQEND
  8
0
  0
POLYLINE
  8
21
 66
1
 10
0.0000
 20
0.0000
 30
0.0000
 40
0.0000
 41
0.0000
 70
1
  0
VERTEX
  8
21
 10
226.1700
 20
-165.5707
 30
0.0000
  0
VERTEX
  8
21
 10
226.4762
 20
-164.8315
 30
0.0000
 42
1.0000
  0
VERTEX
  8
21
 10
226.3589
 20
-164.7829
 30
0.0000
  0
VERTEX
  8
21
 10
226.0527
 20
-165.5220
 30
0.0000
 42
1.0000
  0
SEQEND
  8
0
  0
POLYLINE
  8
21
 66
1
 10
0.0000
 20
0.0000
 30
0.0000
 40
0.0000
 41
0.0000
 70
1
  0
VERTEX
  8
21
 10
226.3932
 20
-164.8659
 30
0.0000
  0
VERTEX
  8
21
 10
227.1323
 20
-165.1721
 30
0.0000
 42
1.0000
  0
VERTEX
  8
21
 10
227.1809
 20
-165.0547
 30
0.0000
  0
VERTEX
  8
21
 10
226.4418
 20
-164.7486
 30
0.0000
 42
1.0000
  0
SEQEND
  8
0
  0
POLYLINE
  8
21
 66
1
 10
0.0000
 20
0.0000
 30
0.0000
 40
0.0000
 41
0.0000
 70
1
  0
VERTEX
  8
21
 10
227.1323
 20
-165.1721
 30
0.0000
  0
VERTEX
  8
21
 10
229.8116
 20
-166.2818
 30
0.0000
 42
1.0000
  0
VERTEX
  8
21
 10
229.8602
 20
-166.1645
 30
0.0000
  0
VERTEX
  8
21
 10
227.1809
 20
-165.0547
 30
0.0000
 42
1.0000
  0
SEQEND
  8
0
  0
POLYLINE
  8
21
 66
1
 10
0.0000
 20
0.0000
 30
0.0000
 40
0.0000
 41
0.0000
 70
1
  0
VERTEX
  8
21
 10
229.7772
 20
-166.1989
 30
0.0000
  0
VERTEX
  8
21
 10
228.4378
 20
-169.4325
 30
0.0000
 42
1.0000
  0
VERTEX
  8
21
 10
228.5551
 20
-169.4811
 30
0.0000
  0
VERTEX
  8
21
 10
229.8945
 20
-166.2475
 30
0.0000
 42
1.0000
  0
SEQEND
  8
0
  0
POLYLINE
  8
21
 66
1
 10
0.0000
 20
0.0000
 30
0.0000
 40
0.0000
 41
0.0000
 70
1
  0
VERTEX
  8
21
 10
226.1357
 20
-165.6050
 30
0.0000
  0
VERTEX
  8
21
 10
227.1809
 20
-165.1721
 30
0.0000
 42
1.0000
  0
VERTEX
  8
21
 10
227.1323
 20
-165.0547
 30
0.0000
  0
VERTEX
  8
21
 10
226.0871
 20
-165.4877
 30
0.0000
 42
1.0000
  0
SEQEND
  8
0
  0
LINE
  8
21
 10
229.7561
 20
-166.6772
 30
0.0000
 11
225.1579
 21
-167.5868
 31
0.0000
  0
LINE
  8
21
 10
228.7611
 20
-169.0793
 30
0.0000
 11
226.1529
 21
-165.1847
 31
0.0000
  0
CIRCLE
  8
21
 10
227.4570
 20
-167.1320
 30
0.0000
 40
1.4903
  0
CIRCLE
  8
21
 10
227.4570
 20
-167.1320
 30
0.0000
 40
1.5903
  0
CIRCLE
  8
21
 10
227.4570
 20
-167.1320
 30
0.0000
 40
1.2842
  0
CIRCLE
  8
21
 10
227.4570
 20
-167.1320
 30
0.0000
 40
1.3842
  0
POLYLINE
  8
21
 66
1
 10
0.0000
 20
0.0000
 30
0.0000
 40
0.0000
 41
0.0000
 70
1
  0
VERTEX
  8
21
 10
232.7288
 20
-173.1379
 30
0.0000
  0
VERTEX
  8
21
 10
230.1125
 20
-170.5216
 30
0.0000
 42
1.0000
  0
VERTEX
  8
21
 10
230.0227
 20
-170.6114
 30
0.0000
  0
VERTEX
  8
21
 10
232.6390
 20
-173.2277
 30
0.0000
 42
1.0000
  0
SEQEND
  8
0
  0
POLYLINE
  8
21
 66
1
 10
0.0000
 20
0.0000
 30
0.0000
 40
0.0000
 41
0.0000
 70
1
  0
VERTEX
  8
21
 10
230.1125
 20
-170.6114
 30
0.0000
  0
VERTEX
  8
21
 10
232.0217
 20
-168.7022
 30
0.0000
 42
1.0000
  0
VERTEX
  8
21
 10
231.9319
 20
-168.6124
 30
0.0000
  0
VERTEX
  8
21
 10
230.0227
 20
-170.5216
 30
0.0000
 42
1.0000
  0
SEQEND
  8
0
  0
POLYLINE
  8
21
 66
1
 10
0.0000
 20
0.0000
 30
0.0000
 40
0.0000
 41
0.0000
 70
1
  0
VERTEX
  8
21
 10
232.0217
 20
-168.7022
 30
0.0000
  0
VERTEX
  8
21
 10
232.5874
 20
-168.1365
 30
0.0000
 42
1.0000
  0
VERTEX
  8
21
 10
232.4976
 20
-168.0467
 30
0.0000
  0
VERTEX
  8
21
 10
231.9319
 20
-168.6124
 30
0.0000
 42
1.0000
  0
SEQEND
  8
0
  0
POLYLINE
  8
21
 66
1
 10
0.0000
 20
0.0000
 30
0.0000
 40
0.0000
 41
0.0000
 70
1
  0
VERTEX
  8
21
 10
232.4976
 20
-168.1365
 30
0.0000
  0
VERTEX
  8
21
 10
233.0633
 20
-168.7022
 30
0.0000
 42
1.0000
  0
VERTEX
  8
21
 10
233.1531
 20
-168.6124
 30
0.0000
  0
VERTEX
  8
21
 10
232.5874
 20
-168.0467
 30
0.0000
 42
1.0000
  0
SEQEND
  8
0
  0
POLYLINE
  8
21
 66
1
 10
0.0000
 20
0.0000
 30
0.0000
 40
0.0000
 41
0.0000
 70
1
  0
VERTEX
  8
21
 10
233.0633
 20
-168.7022
 30
0.0000
  0
VERTEX
  8
21
 10
235.1139
 20
-170.7528
 30
0.0000
 42
1.0000
  0
VERTEX
  8
21
 10
235.2037
 20
-170.6630
 30
0.0000
  0
VERTEX
  8
21
 10
233.1531
 20
-168.6124
 30
0.0000
 42
1.0000
  0
SEQEND
  8
0
  0
POLYLINE
  8
21
 66
1
 10
0.0000
 20
0.0000
 30
0.0000
 40
0.0000
 41
0.0000
 70
1
  0
VERTEX
  8
21
 10
235.1139
 20
-170.6630
 30
0.0000
  0
VERTEX
  8
21
 10
232.6390
 20
-173.1379
 30
0.0000
 42
1.0000
  0
VERTEX
  8
21
 10
232.7288
 20
-173.2277
 30
0.0000
  0
VERTEX
  8
21
 10
235.2037
 20
-170.7528
 30
0.0000
 42
1.0000
  0
SEQEND
  8
0
  0
POLYLINE
  8
21
 66
1
 10
0.0000
 20
0.0000
 30
0.0000
 40
0.0000
 41
0.0000
 70
1
  0
VERTEX
  8
21
 10
231.9768
 20
-168.7208
 30
0.0000
  0
VERTEX
  8
21
 10
233.1082
 20
-168.7208
 30
0.0000
 42
1.0000
  0
VERTEX
  8
21
 10
233.1082
 20
-168.5938
 30
0.0000
  0
VERTEX
  8
21
 10
231.9768
 20
-168.5938
 30
0.0000
 42
1.0000
  0
SEQEND
  8
0
  0
LINE
  8
21
 10
234.9113
 20
-171.0968
 30
0.0000
 11
230.3151
 21
-170.1776
 31
0.0000
  0
LINE
  8
21
 10
233.0728
 20
-172.9353
 30
0.0000
 11
232.1536
 21
-168.3391
 31
0.0000
  0
CIRCLE
  8
21
 10
232.6132
 20
-170.6372
 30
0.0000
 40
1.4903
  0
CIRCLE
  8
21
 10
232.6132
 20
-170.6372
 30
0.0000
 40
1.5903
  0
CIRCLE
  8
21
 10
232.6132
 20
-170.6372
 30
0.0000
 40
1.2842
  0
CIRCLE
  8
21
 10
232.6132
 20
-170.6372
 30
0.0000
 40
1.3842
  0
POLYLINE
  8
21
 66
1
 10
0.0000
 20
0.0000
 30
0.0000
 40
0.0000
 41
0.0000
 70
1
  0
VERTEX
  8
21
 10
235.1166
 20
-178.1643
 30
0.0000
  0
VERTEX
  8
21
 10
233.7366
 20
-174.7313
 30
0.0000
 42
1.0000
  0
VERTEX
  8
21
 10
233.6187
 20
-174.7787
 30
0.0000
  0
VERTEX
  8
21
 10
234.9988
 20
-178.2117
 30
0.0000
 42
1.0000
  0
SEQEND
  8
0
  0
POLYLINE
  8
21
 66
1
 10
0.0000
 20
0.0000
 30
0.0000
 40
0.0000
 41
0.0000
 70
1
  0
VERTEX
  8
21
 10
233.7013
 20
-174.8139
 30
0.0000
  0
VERTEX
  8
21
 10
236.2065
 20
-173.8069
 30
0.0000
 42
1.0000
  0
VERTEX
  8
21
 10
236.1591
 20
-173.6890
 30
0.0000
  0
VERTEX
  8
21
 10
233.6540
 20
-174.6961
 30
0.0000
 42
1.0000
  0
SEQEND
  8
0
  0
POLYLINE
  8
21
 66
1
 10
0.0000
 20
0.0000
 30
0.0000
 40
0.0000
 41
0.0000
 70
1
  0
VERTEX
  8
21
 10
236.2065
 20
-173.8069
 30
0.0000
  0
VERTEX
  8
21
 10
236.9488
 20
-173.5085
 30
0.0000
 42
1.0000
  0
VERTEX
  8
21
 10
236.9014
 20
-173.3907
 30
0.0000
  0
VERTEX
  8
21
 10
236.1591
 20
-173.6890
 30
0.0000
 42
1.0000
  0
SEQEND
  8
0
  0
POLYLINE
  8
21
 66
1
 10
0.0000
 20
0.0000
 30
0.0000
 40
0.0000
 41
0.0000
 70
1
  0
VERTEX
  8
21
 10
236.8662
 20
-173.4733
 30
0.0000
  0
VERTEX
  8
21
 10
237.1646
 20
-174.2155
 30
0.0000
 42
1.0000
  0
VERTEX
  8
21
 10
237.2824
 20
-174.1682
 30
0.0000
  0
VERTEX
  8
21
 10
236.9840
 20
-173.4259
 30
0.0000
 42
1.0000
  0
SEQEND
  8
0
  0
POLYLINE
  8
21
 66
1
 10
0.0000
 20
0.0000
 30
0.0000
 40
0.0000
 41
0.0000
 70
1
  0
VERTEX
  8
21
 10
237.1646
 20
-174.2155
 30
0.0000
  0
VERTEX
  8
21
 10
238.2462
 20
-176.9063
 30
0.0000
 42
1.0000
  0
VERTEX
  8
21
 10
238.3641
 20
-176.8589
 30
0.0000
  0
VERTEX
  8
21
 10
237.2824
 20
-174.1682
 30
0.0000
 42
1.0000
  0
SEQEND
  8
0
  0
POLYLINE
  8
21
 66
1
 10
0.0000
 20
0.0000
 30
0.0000
 40
0.0000
 41
0.0000
 70
1
  0
VERTEX
  8
21
 10
238.2815
 20
-176.8236
 30
0.0000
  0
VERTEX
  8
21
 10
235.0340
 20
-178.1291
 30
0.0000
 42
1.0000
  0
VERTEX
  8
21
 10
235.0814
 20
-178.2469
 30
0.0000
  0
VERTEX
  8
21
 10
238.3288
 20
-176.9415
 30
0.0000
 42
1.0000
  0
SEQEND
  8
0
  0
POLYLINE
  8
21
 66
1
 10
0.0000
 20
0.0000
 30
0.0000
 40
0.0000
 41
0.0000
 70
1
  0
VERTEX
  8
21
 10
236.1579
 20
-173.8064
 30
0.0000
  0
VERTEX
  8
21
 10
237.1986
 20
-174.2502
 30
0.0000
 42
1.0000
  0
VERTEX
  8
21
 10
237.2484
 20
-174.1334
 30
0.0000
  0
VERTEX
  8
21
 10
236.2077
 20
-173.6896
 30
0.0000
 42
1.0000
  0
SEQEND
  8
0
  0
LINE
  8
21
 10
237.9249
 20
-177.1432
 30
0.0000
 11
234.0579
 21
-174.4944
 31
0.0000
  0
LINE
  8
21
 10
235.5125
 20
-178.1130
 30
0.0000
 11
236.4703
 21
-173.5246
 31
0.0000
  0
CIRCLE
  8
21
 10
235.9914
 20
-175.8188
 30
0.0000
 40
1.4903
  0
CIRCLE
  8
21
 10
235.9914
 20
-175.8188
 30
0.0000
 40
1.5903
  0
CIRCLE
  8
21
 10
235.9914
 20
-175.8188
 30
0.0000
 40
1.2842
  0
CIRCLE
  8
21
 10
235.9914
 20
-175.8188
 30
0.0000
 40
1.3842
  0
POLYLINE
  8
21
 66
1
 10
0.0000
 20
0.0000
 30
0.0000
 40
0.0000
 41
0.0000
 70
1
  0
VERTEX
  8
21
 10
235.4733
 20
-183.4854
 30
0.0000
  0
VERTEX
  8
21
 10
235.4733
 20
-179.7854
 30
0.0000
 42
1.0000
  0
VERTEX
  8
21
 10
235.3463
 20
-179.7854
 30
0.0000
  0
VERTEX
  8
21
 10
235.3463
 20
-183.4854
 30
0.0000
 42
1.0000
  0
SEQEND
  8
0
  0
POLYLINE
  8
21
 66
1
 10
0.0000
 20
0.0000
 30
0.0000
 40
0.0000
 41
0.0000
 70
1
  0
VERTEX
  8
21
 10
235.4098
 20
-179.8489
 30
0.0000
  0
VERTEX
  8
21
 10
238.1098
 20
-179.8489
 30
0.0000
 42
1.0000
  0
VERTEX
  8
21
 10
238.1098
 20
-179.7219
 30
0.0000
  0
VERTEX
  8
21
 10
235.4098
 20
-179.7219
 30
0.0000
 42
1.0000
  0
SEQEND
  8
0
  0
POLYLINE
  8
21
 66
1
 10
0.0000
 20
0.0000
 30
0.0000
 40
0.0000
 41
0.0000
 70
1
  0
VERTEX
  8
21
 10
238.1098
 20
-179.8489
 30
0.0000
  0
VERTEX
  8
21
 10
238.9098
 20
-179.8489
 30
0.0000
 42
1.0000
  0
VERTEX
  8
21
 10
238.9098
 20
-179.7219
 30
0.0000
  0
VERTEX
  8
21
 10
238.1098
 20
-179.7219
 30
0.0000
 42
1.0000
  0
SEQEND
  8
0
  0
POLYLINE
  8
21
 66
1
 10
0.0000
 20
0.0000
 30
0.0000
 40
0.0000
 41
0.0000
 70
1
  0
VERTEX
  8
21
 10
238.8463
 20
-179.7854
 30
0.0000
  0
VERTEX
  8
21
 10
238.8463
 20
-180.5854
 30
0.0000
 42
1.0000
  0
VERTEX
  8
21
 10
238.9733
 20
-180.5854
 30
0.0000
  0
VERTEX
  8
21
 10
238.9733
 20
-179.7854
 30
0.0000
 42
1.0000
  0
SEQEND
  8
0
  0
POLYLINE
  8
21
 66
1
 10
0.0000
 20
0.0000
 30
0.0000
 40
0.0000
 41
0.0000
 70
1
  0
VERTEX
  8
21
 10
238.8463
 20
-180.5854
 30
0.0000
  0
VERTEX
  8
21
 10
238.8463
 20
-183.4854
 30
0.0000
 42
1.0000
  0
VERTEX
  8
21
 10
238.9733
 20
-183.4854
 30
0.0000
  0
VERTEX
  8
21
 10
238.9733
 20
-180.5854
 30
0.0000
 42
1.0000
  0
SEQEND
  8
0
  0
POLYLINE
  8
21
 66
1
 10
0.0000
 20
0.0000
 30
0.0000
 40
0.0000
 41
0.0000
 70
1
  0
VERTEX
  8
21
 10
238.9098
 20
-183.4219
 30
0.0000
  0
VERTEX
  8
21
 10
235.4098
 20
-183.4219
 30
0.0000
 42
1.0000
  0
VERTEX
  8
21
 10
235.4098
 20
-183.5489
 30
0.0000
  0
VERTEX
  8
21
 10
238.9098
 20
-183.5489
 30
0.0000
 42
1.0000
  0
SEQEND
  8
0
  0
POLYLINE
  8
21
 66
1
 10
0.0000
 20
0.0000
 30
0.0000
 40
0.0000
 41
0.0000
 70
1
  0
VERTEX
  8
21
 10
238.0649
 20
-179.8303
 30
0.0000
  0
VERTEX
  8
21
 10
238.8649
 20
-180.6303
 30
0.0000
 42
1.0000
  0
VERTEX
  8
21
 10
238.9547
 20
-180.5405
 30
0.0000
  0
VERTEX
  8
21
 10
238.1547
 20
-179.7405
 30
0.0000
 42
1.0000
  0
SEQEND
  8
0
  0
LINE
  8
21
 10
238.4598
 20
-183.5854
 30
0.0000
 11
235.8598
 21
-179.6854
 31
0.0000
  0
LINE
  8
21
 10
235.8598
 20
-183.5854
 30
0.0000
 11
238.4598
 21
-179.6854
 31
0.0000
  0
CIRCLE
  8
21
 10
237.1598
 20
-181.6354
 30
0.0000
 40
1.4903
  0
CIRCLE
  8
21
 10
237.1598
 20
-181.6354
 30
0.0000
 40
1.5903
  0
CIRCLE
  8
21
 10
237.1598
 20
-181.6354
 30
0.0000
 40
1.2842
  0
CIRCLE
  8
21
 10
237.1598
 20
-181.6354
 30
0.0000
 40
1.3842
  0
POLYLINE
  8
21
 66
1
 10
0.0000
 20
0.0000
 30
0.0000
 40
0.0000
 41
0.0000
 70
1
  0
VERTEX
  8
21
 10
233.7309
 20
-188.5276
 30
0.0000
  0
VERTEX
  8
21
 10
235.1289
 20
-185.1019
 30
0.0000
 42
1.0000
  0
VERTEX
  8
21
 10
235.0113
 20
-185.0539
 30
0.0000
  0
VERTEX
  8
21
 10
233.6133
 20
-188.4796
 30
0.0000
 42
1.0000
  0
SEQEND
  8
0
  0
POLYLINE
  8
21
 66
1
 10
0.0000
 20
0.0000
 30
0.0000
 40
0.0000
 41
0.0000
 70
1
  0
VERTEX
  8
21
 10
235.0461
 20
-185.1367
 30
0.0000
  0
VERTEX
  8
21
 10
237.5460
 20
-186.1569
 30
0.0000
 42
1.0000
  0
VERTEX
  8
21
 10
237.5940
 20
-186.0393
 30
0.0000
  0
VERTEX
  8
21
 10
235.0941
 20
-185.0191
 30
0.0000
 42
1.0000
  0
SEQEND
  8
0
  0
POLYLINE
  8
21
 66
1
 10
0.0000
 20
0.0000
 30
0.0000
 40
0.0000
 41
0.0000
 70
1
  0
VERTEX
  8
21
 10
237.5460
 20
-186.1569
 30
0.0000
  0
VERTEX
  8
21
 10
238.2867
 20
-186.4592
 30
0.0000
 42
1.0000
  0
VERTEX
  8
21
 10
238.3347
 20
-186.3416
 30
0.0000
  0
VERTEX
  8
21
 10
237.5940
 20
-186.0393
 30
0.0000
 42
1.0000
  0
SEQEND
  8
0
  0
POLYLINE
  8
21
 66
1
 10
0.0000
 20
0.0000
 30
0.0000
 40
0.0000
 41
0.0000
 70
1
  0
VERTEX
  8
21
 10
238.2519
 20
-186.3764
 30
0.0000
  0
VERTEX
  8
21
 10
237.9496
 20
-187.1171
 30
0.0000
 42
1.0000
  0
VERTEX
  8
21
 10
238.0672
 20
-187.1650
 30
0.0000
  0
VERTEX
  8
21
 10
238.3695
 20
-186.4244
 30
0.0000
 42
1.0000
  0
SEQEND
  8
0
  0
POLYLINE
  8
21
 66
1
 10
0.0000
 20
0.0000
 30
0.0000
 40
0.0000
 41
0.0000
 70
1
  0
VERTEX
  8
21
 10
237.9496
 20
-187.1171
 30
0.0000
  0
VERTEX
  8
21
 10
236.8539
 20
-189.8021
 30
0.0000
 42
1.0000
  0
VERTEX
  8
21
 10
236.9715
 20
-189.8501
 30
0.0000
  0
VERTEX
  8
21
 10
238.0672
 20
-187.1650
 30
0.0000
 42
1.0000
  0
SEQEND
  8
0
  0
POLYLINE
  8
21
 66
1
 10
0.0000
 20
0.0000
 30
0.0000
 40
0.0000
 41
0.0000
 70
1
  0
VERTEX
  8
21
 10
236.9367
 20
-189.7673
 30
0.0000
  0
VERTEX
  8
21
 10
233.6961
 20
-188.4448
 30
0.0000
 42
1.0000
  0
VERTEX
  8
21
 10
233.6481
 20
-188.5624
 30
0.0000
  0
VERTEX
  8
21
 10
236.8887
 20
-189.8849
 30
0.0000
 42
1.0000
  0
SEQEND
  8
0
  0
POLYLINE
  8
21
 66
1
 10
0.0000
 20
0.0000
 30
0.0000
 40
0.0000
 41
0.0000
 70
1
  0
VERTEX
  8
21
 10
237.5114
 20
-186.1227
 30
0.0000
  0
VERTEX
  8
21
 10
237.9499
 20
-187.1657
 30
0.0000
 42
1.0000
  0
VERTEX
  8
21
 10
238.0669
 20
-187.1164
 30
0.0000
  0
VERTEX
  8
21
 10
237.6285
 20
-186.0735
 30
0.0000
 42
1.0000
  0
SEQEND
  8
0
  0
LINE
  8
21
 10
236.4582
 20
-189.7486
 30
0.0000
 11
235.5246
 21
-185.1554
 31
0.0000
  0
LINE
  8
21
 10
234.0510
 20
-188.7663
 30
0.0000
 11
237.9318
 21
-186.1377
 31
0.0000
  0
CIRCLE
  8
21
 10
235.9914
 20
-187.4520
 30
0.0000
 40
1.4903
  0
CIRCLE
  8
21
 10
235.9914
 20
-187.4520
 30
0.0000
 40
1.5903
  0
CIRCLE
  8
21
 10
235.9914
 20
-187.4520
 30
0.0000
 40
1.2842
  0
CIRCLE
  8
21
 10
235.9914
 20
-187.4520
 30
0.0000
 40
1.3842
  0
POLYLINE
  8
21
 66
1
 10
0.0000
 20
0.0000
 30
0.0000
 40
0.0000
 41
0.0000
 70
1
  0
VERTEX
  8
21
 10
230.0871
 20
-192.7492
 30
0.0000
  0
VERTEX
  8
21
 10
232.7034
 20
-190.1329
 30
0.0000
 42
1.0000
  0
VERTEX
  8
21
 10
232.6136
 20
-190.0431
 30
0.0000
  0
VERTEX
  8
21
 10
229.9973
 20
-192.6594
 30
0.0000
 42
1.0000
  0
SEQEND
  8
0
  0
POLYLINE
  8
21
 66
1
 10
0.0000
 20
0.0000
 30
0.0000
 40
0.0000
 41
0.0000
 70
1
  0
VERTEX
  8
21
 10
232.6136
 20
-190.1329
 30
0.0000
  0
VERTEX
  8
21
 10
234.5228
 20
-192.0421
 30
0.0000
 42
1.0000
  0
VERTEX
  8
21
 10
234.6126
 20
-191.9523
 30
0.0000
  0
VERTEX
  8
21
 10
232.7034
 20
-190.0431
 30
0.0000
 42
1.0000
  0
SEQEND
  8
0
  0
POLYLINE
  8
21
 66
1
 10
0.0000
 20
0.0000
 30
0.0000
 40
0.0000
 41
0.0000
 70
1
  0
VERTEX
  8
21
 10
234.5228
 20
-192.0421
 30
0.0000
  0
VERTEX
  8
21
 10
235.0885
 20
-192.6078
 30
0.0000
 42
1.0000
  0
VERTEX
  8
21
 10
235.1783
 20
-192.5180
 30
0.0000
  0
VERTEX
  8
21
 10
234.6126
 20
-191.9523
 30
0.0000
 42
1.0000
  0
SEQEND
  8
0
  0
POLYLINE
  8
21
 66
1
 10
0.0000
 20
0.0000
 30
0.0000
 40
0.0000
 41
0.0000
 70
1
  0
VERTEX
  8
21
 10
235.0885
 20
-192.5180
 30
0.0000
  0
VERTEX
  8
21
 10
234.5228
 20
-193.0837
 30
0.0000
 42
1.0000
  0
VERTEX
  8
21
 10
234.6126
 20
-193.1735
 30
0.0000
  0
VERTEX
  8
21
 10
235.1783
 20
-192.6078
 30
0.0000
 42
1.0000
  0
SEQEND
  8
0
  0
POLYLINE
  8
21
 66
1
 10
0.0000
 20
0.0000
 30
0.0000
 40
0.0000
 41
0.0000
 70
1
  0
VERTEX
  8
21
 10
234.5228
 20
-193.0837
 30
0.0000
  0
VERTEX
  8
21
 10
232.4722
 20
-195.1343
 30
0.0000
 42
1.0000
  0
VERTEX
  8
21
 10
232.5620
 20
-195.2241
 30
0.0000
  0
VERTEX
  8
21
 10
234.6126
 20
-193.1735
 30
0.0000
 42
1.0000
  0
SEQEND
  8
0
  0
POLYLINE
  8
21
 66
1
 10
0.0000
 20
0.0000
 30
0.0000
 40
0.0000
 41
0.0000
 70
1
  0
VERTEX
  8
21
 10
232.5620
 20
-195.1343
 30
0.0000
  0
VERTEX
  8
21
 10
230.0871
 20
-192.6594
 30
0.0000
 42
1.0000
  0
VERTEX
  8
21
 10
229.9973
 20
-192.7492
 30
0.0000
  0
VERTEX
  8
21
 10
232.4722
 20
-195.2241
 30
0.0000
 42
1.0000
  0
SEQEND
  8
0
  0
POLYLINE
  8
21
 66
1
 10
0.0000
 20
0.0000
 30
0.0000
 40
0.0000
 41
0.0000
 70
1
  0
VERTEX
  8
21
 10
234.5042
 20
-191.9972
 30
0.0000
  0
VERTEX
  8
21
 10
234.5042
 20
-193.1286
 30
0.0000
 42
1.0000
  0
VERTEX
  8
21
 10
234.6312
 20
-193.1286
 30
0.0000
  0
VERTEX
  8
21
 10
234.6312
 20
-191.9972
 30
0.0000
 42
1.0000
  0
SEQEND
  8
0
  0
LINE
  8
21
 10
232.1282
 20
-194.9317
 30
0.0000
 11
233.0474
 21
-190.3355
 31
0.0000
  0
LINE
  8
21
 10
230.2897
 20
-193.0932
 30
0.0000
 11
234.8859
 21
-192.1740
 31
0.0000
  0
CIRCLE
  8
21
 10
232.5878
 20
-192.6336
 30
0.0000
 40
1.4903
  0
CIRCLE
  8
21
 10
232.5878
 20
-192.6336
 30
0.0000
 40
1.5903
  0
CIRCLE
  8
21
 10
232.5878
 20
-192.6336
 30
0.0000
 40
1.2842
  0
CIRCLE
  8
21
 10
232.5878
 20
-192.6336
 30
0.0000
 40
1.3842
  0
POLYLINE
  8
21
 66
1
 10
0.0000
 20
0.0000
 30
0.0000
 40
0.0000
 41
0.0000
 70
1
  0
VERTEX
  8
21
 10
225.1532
 20
-195.2124
 30
0.0000
  0
VERTEX
  8
21
 10
228.5716
 20
-193.7965
 30
0.0000
 42
1.0000
  0
VERTEX
  8
21
 10
228.5230
 20
-193.6792
 30
0.0000
  0
VERTEX
  8
21
 10
225.1046
 20
-195.0951
 30
0.0000
 42
1.0000
  0
SEQEND
  8
0
  0
POLYLINE
  8
21
 66
1
 10
0.0000
 20
0.0000
 30
0.0000
 40
0.0000
 41
0.0000
 70
1
  0
VERTEX
  8
21
 10
228.4886
 20
-193.7621
 30
0.0000
  0
VERTEX
  8
21
 10
229.5219
 20
-196.2566
 30
0.0000
 42
1.0000
  0
VERTEX
  8
21
 10
229.6392
 20
-196.2080
 30
0.0000
  0
VERTEX
  8
21
 10
228.6059
 20
-193.7135
 30
0.0000
 42
1.0000
  0
SEQEND
  8
0
  0
POLYLINE
  8
21
 66
1
 10
0.0000
 20
0.0000
 30
0.0000
 40
0.0000
 41
0.0000
 70
1
  0
VERTEX
  8
21
 10
229.5219
 20
-196.2566
 30
0.0000
  0
VERTEX
  8
21
 10
229.8280
 20
-196.9957
 30
0.0000
 42
1.0000
  0
VERTEX
  8
21
 10
229.9453
 20
-196.9471
 30
0.0000
  0
VERTEX
  8
21
 10
229.6392
 20
-196.2080
 30
0.0000
 42
1.0000
  0
SEQEND
  8
0
  0
POLYLINE
  8
21
 66
1
 10
0.0000
 20
0.0000
 30
0.0000
 40
0.0000
 41
0.0000
 70
1
  0
VERTEX
  8
21
 10
229.8624
 20
-196.9128
 30
0.0000
  0
VERTEX
  8
21
 10
229.1233
 20
-197.2189
 30
0.0000
 42
1.0000
  0
VERTEX
  8
21
 10
229.1719
 20
-197.3362
 30
0.0000
  0
VERTEX
  8
21
 10
229.9110
 20
-197.0301
 30
0.0000
 42
1.0000
  0
SEQEND
  8
0
  0
POLYLINE
  8
21
 66
1
 10
0.0000
 20
0.0000
 30
0.0000
 40
0.0000
 41
0.0000
 70
1
  0
VERTEX
  8
21
 10
229.1233
 20
-197.2189
 30
0.0000
  0
VERTEX
  8
21
 10
226.4440
 20
-198.3287
 30
0.0000
 42
1.0000
  0
VERTEX
  8
21
 10
226.4926
 20
-198.4460
 30
0.0000
  0
VERTEX
  8
21
 10
229.1719
 20
-197.3362
 30
0.0000
 42
1.0000
  0
SEQEND
  8
0
  0
POLYLINE
  8
21
 66
1
 10
0.0000
 20
0.0000
 30
0.0000
 40
0.0000
 41
0.0000
 70
1
  0
VERTEX
  8
21
 10
226.5270
 20
-198.3631
 30
0.0000
  0
VERTEX
  8
21
 10
225.1876
 20
-195.1295
 30
0.0000
 42
1.0000
  0
VERTEX
  8
21
 10
225.0703
 20
-195.1781
 30
0.0000
  0
VERTEX
  8
21
 10
226.4097
 20
-198.4117
 30
0.0000
 42
1.0000
  0
SEQEND
  8
0
  0
POLYLINE
  8
21
 66
1
 10
0.0000
 20
0.0000
 30
0.0000
 40
0.0000
 41
0.0000
 70
1
  0
VERTEX
  8
21
 10
229.5219
 20
-196.2080
 30
0.0000
  0
VERTEX
  8
21
 10
229.0889
 20
-197.2533
 30
0.0000
 42
1.0000
  0
VERTEX
  8
21
 10
229.2062
 20
-197.3019
 30
0.0000
  0
VERTEX
  8
21
 10
229.6392
 20
-196.2566
 30
0.0000
 42
1.0000
  0
SEQEND
  8
0
  0
LINE
  8
21
 10
226.2037
 20
-198.0099
 30
0.0000
 11
228.8119
 21
-194.1153
 31
0.0000
  0
LINE
  8
21
 10
225.2087
 20
-195.6078
 30
0.0000
 11
229.8069
 21
-196.5174
 31
0.0000
  0
CIRCLE
  8
21
 10
227.5078
 20
-196.0626
 30
0.0000
 40
1.4903
  0
CIRCLE
  8
21
 10
227.5078
 20
-196.0626
 30
0.0000
 40
1.5903
  0
CIRCLE
  8
21
 10
227.5078
 20
-196.0626
 30
0.0000
 40
1.2842
  0
CIRCLE
  8
21
 10
227.5078
 20
-196.0626
 30
0.0000
 40
1.3842
  0
POLYLINE
  8
21
 66
1
 10
0.0000
 20
0.0000
 30
0.0000
 40
0.0000
 41
0.0000
 70
1
  0
VERTEX
  8
21
 10
219.6380
 20
-195.5699
 30
0.0000
  0
VERTEX
  8
21
 10
223.3380
 20
-195.5699
 30
0.0000
 42
1.0000
  0
VERTEX
  8
21
 10
223.3380
 20
-195.4429
 30
0.0000
  0
VERTEX
  8
21
 10
219.6380
 20
-195.4429
 30
0.0000
 42
1.0000
  0
SEQEND
  8
0
  0
POLYLINE
  8
21
 66
1
 10
0.0000
 20
0.0000
 30
0.0000
 40
0.0000
 41
0.0000
 70
1
  0
VERTEX
  8
21
 10
223.2745
 20
-195.5064
 30
0.0000
  0
VERTEX
  8
21
 10
223.2745
 20
-198.2064
 30
0.0000
 42
1.0000
  0
VERTEX
  8
21
 10
223.4015
 20
-198.2064
 30
0.0000
  0
VERTEX
  8
21
 10
223.4015
 20
-195.5064
 30
0.0000
 42
1.0000
  0
SEQEND
  8
0
  0
POLYLINE
  8
21
 66
1
 10
0.0000
 20
0.0000
 30
0.0000
 40
0.0000
 41
0.0000
 70
1
  0
VERTEX
  8
21
 10
223.2745
 20
-198.2064
 30
0.0000
  0
VERTEX
  8
21
 10
223.2745
 20
-199.0064
 30
0.0000
 42
1.0000
  0
VERTEX
  8
21
 10
223.4015
 20
-199.0064
 30
0.0000
  0
VERTEX
  8
21
 10
223.4015
 20
-198.2064
 30
0.0000
 42
1.0000
  0
SEQEND
  8
0
  0
POLYLINE
  8
21
 66
1
 10
0.0000
 20
0.0000
 30
0.0000
 40
0.0000
 41
0.0000
 70
1
  0
VERTEX
  8
21
 10
223.3380
 20
-198.9429
 30
0.0000
  0
VERTEX
  8
21
 10
222.5380
 20
-198.9429
 30
0.0000
 42
1.0000
  0
VERTEX
  8
21
 10
222.5380
 20
-199.0699
 30
0.0000
  0
VERTEX
  8
21
 10
223.3380
 20
-199.0699
 30
0.0000
 42
1.0000
  0
SEQEND
  8
0
  0
POLYLINE
  8
21
 66
1
 10
0.0000
 20
0.0000
 30
0.0000
 40
0.0000
 41
0.0000
 70
1
  0
VERTEX
  8
21
 10
222.5380
 20
-198.9429
 30
0.0000
  0
VERTEX
  8
21
 10
219.6380
 20
-198.9429
 30
0.0000
 42
1.0000
  0
VERTEX
  8
21
 10
219.6380
 20
-199.0699
 30
0.0000
  0
VERTEX
  8
21
 10
222.5380
 20
-199.0699
 30
0.0000
 42
1.0000
  0
SEQEND
  8
0
  0
POLYLINE
  8
21
 66
1
 10
0.0000
 20
0.0000
 30
0.0000
 40
0.0000
 41
0.0000
 70
1
  0
VERTEX
  8
21
 10
219.7015
 20
-199.0064
 30
0.0000
  0
VERTEX
  8
21
 10
219.7015
 20
-195.5064
 30
0.0000
 42
1.0000
  0
VERTEX
  8
21
 10
219.5745
 20
-195.5064
 30
0.0000
  0
VERTEX
  8
21
 10
219.5745
 20
-199.0064
 30
0.0000
 42
1.0000
  0
SEQEND
  8
0
  0
POLYLINE
  8
21
 66
1
 10
0.0000
 20
0.0000
 30
0.0000
 40
0.0000
 41
0.0000
 70
1
  0
VERTEX
  8
21
 10
223.2931
 20
-198.1615
 30
0.0000
  0
VERTEX
  8
21
 10
222.4931
 20
-198.9615
 30
0.0000
 42
1.0000
  0
VERTEX
  8
21
 10
222.5829
 20
-199.0513
 30
0.0000
  0
VERTEX
  8
21
 10
223.3829
 20
-198.2513
 30
0.0000
 42
1.0000
  0
SEQEND
  8
0
  0
LINE
  8
21
 10
219.5380
 20
-198.5564
 30
0.0000
 11
223.4380
 21
-195.9564
 31
0.0000
  0
LINE
  8
21
 10
219.5380
 20
-195.9564
 30
0.0000
 11
223.4380
 21
-198.5564
 31
0.0000
  0
CIRCLE
  8
21
 10
221.4880
 20
-197.2564
 30
0.0000
 40
1.4903
  0
CIRCLE
  8
21
 10
221.4880
 20
-197.2564
 30
0.0000
 40
1.5903
  0
CIRCLE
  8
21
 10
221.4880
 20
-197.2564
 30
0.0000
 40
1.2842
  0
CIRCLE
  8
21
 10
221.4880
 20
-197.2564
 30
0.0000
 40
1.3842
  0
POLYLINE
  8
21
 66
1
 10
0.0000
 20
0.0000
 30
0.0000
 40
0.0000
 41
0.0000
 70
1
  0
VERTEX
  8
21
 10
214.4044
 20
-193.7711
 30
0.0000
  0
VERTEX
  8
21
 10
217.8228
 20
-195.1870
 30
0.0000
 42
1.0000
  0
VERTEX
  8
21
 10
217.8714
 20
-195.0697
 30
0.0000
  0
VERTEX
  8
21
 10
214.4530
 20
-193.6538
 30
0.0000
 42
1.0000
  0
SEQEND
  8
0
  0
POLYLINE
  8
21
 66
1
 10
0.0000
 20
0.0000
 30
0.0000
 40
0.0000
 41
0.0000
 70
1
  0
VERTEX
  8
21
 10
217.7884
 20
-195.1041
 30
0.0000
  0
VERTEX
  8
21
 10
216.7552
 20
-197.5985
 30
0.0000
 42
1.0000
  0
VERTEX
  8
21
 10
216.8725
 20
-197.6471
 30
0.0000
  0
VERTEX
  8
21
 10
217.9057
 20
-195.1527
 30
0.0000
 42
1.0000
  0
SEQEND
  8
0
  0
POLYLINE
  8
21
 66
1
 10
0.0000
 20
0.0000
 30
0.0000
 40
0.0000
 41
0.0000
 70
1
  0
VERTEX
  8
21
 10
216.7552
 20
-197.5985
 30
0.0000
  0
VERTEX
  8
21
 10
216.4490
 20
-198.3377
 30
0.0000
 42
1.0000
  0
VERTEX
  8
21
 10
216.5663
 20
-198.3863
 30
0.0000
  0
VERTEX
  8
21
 10
216.8725
 20
-197.6471
 30
0.0000
 42
1.0000
  0
SEQEND
  8
0
  0
POLYLINE
  8
21
 66
1
 10
0.0000
 20
0.0000
 30
0.0000
 40
0.0000
 41
0.0000
 70
1
  0
VERTEX
  8
21
 10
216.5320
 20
-198.3033
 30
0.0000
  0
VERTEX
  8
21
 10
215.7929
 20
-197.9971
 30
0.0000
 42
1.0000
  0
VERTEX
  8
21
 10
215.7443
 20
-198.1145
 30
0.0000
  0
VERTEX
  8
21
 10
216.4834
 20
-198.4206
 30
0.0000
 42
1.0000
  0
SEQEND
  8
0
  0
POLYLINE
  8
21
 66
1
 10
0.0000
 20
0.0000
 30
0.0000
 40
0.0000
 41
0.0000
 70
1
  0
VERTEX
  8
21
 10
215.7929
 20
-197.9971
 30
0.0000
  0
VERTEX
  8
21
 10
213.1136
 20
-196.8874
 30
0.0000
 42
1.0000
  0
VERTEX
  8
21
 10
213.0650
 20
-197.0047
 30
0.0000
  0
VERTEX
  8
21
 10
215.7443
 20
-198.1145
 30
0.0000
 42
1.0000
  0
SEQEND
  8
0
  0
POLYLINE
  8
21
 66
1
 10
0.0000
 20
0.0000
 30
0.0000
 40
0.0000
 41
0.0000
 70
1
  0
VERTEX
  8
21
 10
213.1480
 20
-196.9703
 30
0.0000
  0
VERTEX
  8
21
 10
214.4874
 20
-193.7367
 30
0.0000
 42
1.0000
  0
VERTEX
  8
21
 10
214.3701
 20
-193.6881
 30
0.0000
  0
VERTEX
  8
21
 10
213.0307
 20
-196.9217
 30
0.0000
 42
1.0000
  0
SEQEND
  8
0
  0
POLYLINE
  8
21
 66
1
 10
0.0000
 20
0.0000
 30
0.0000
 40
0.0000
 41
0.0000
 70
1
  0
VERTEX
  8
21
 10
216.7895
 20
-197.5642
 30
0.0000
  0
VERTEX
  8
21
 10
215.7443
 20
-197.9971
 30
0.0000
 42
1.0000
  0
VERTEX
  8
21
 10
215.7929
 20
-198.1145
 30
0.0000
  0
VERTEX
  8
21
 10
216.8381
 20
-197.6815
 30
0.0000
 42
1.0000
  0
SEQEND
  8
0
  0
LINE
  8
21
 10
213.1691
 20
-196.4920
 30
0.0000
 11
217.7673
 21
-195.5824
 31
0.0000
  0
LINE
  8
21
 10
214.1641
 20
-194.0899
 30
0.0000
 11
216.7723
 21
-197.9845
 31
0.0000
  0
CIRCLE
  8
21
 10
215.4682
 20
-196.0372
 30
0.0000
 40
1.4903
  0
CIRCLE
  8
21
 10
215.4682
 20
-196.0372
 30
0.0000
 40
1.5903
  0
CIRCLE
  8
21
 10
215.4682
 20
-196.0372
 30
0.0000
 40
1.2842
  0
CIRCLE
  8
21
 10
215.4682
 20
-196.0372
 30
0.0000
 40
1.3842
  0
POLYLINE
  8
21
 66
1
 10
0.0000
 20
0.0000
 30
0.0000
 40
0.0000
 41
0.0000
 70
1
  0
VERTEX
  8
21
 10
210.3488
 20
-190.2345
 30
0.0000
  0
VERTEX
  8
21
 10
212.9651
 20
-192.8508
 30
0.0000
 42
1.0000
  0
VERTEX
  8
21
 10
213.0549
 20
-192.7610
 30
0.0000
  0
VERTEX
  8
21
 10
210.4386
 20
-190.1447
 30
0.0000
 42
1.0000
  0
SEQEND
  8
0
  0
POLYLINE
  8
21
 66
1
 10
0.0000
 20
0.0000
 30
0.0000
 40
0.0000
 41
0.0000
 70
1
  0
VERTEX
  8
21
 10
212.9651
 20
-192.7610
 30
0.0000
  0
VERTEX
  8
21
 10
211.0559
 20
-194.6702
 30
0.0000
 42
1.0000
  0
VERTEX
  8
21
 10
211.1457
 20
-194.7600
 30
0.0000
  0
VERTEX
  8
21
 10
213.0549
 20
-192.8508
 30
0.0000
 42
1.0000
  0
SEQEND
  8
0
  0
POLYLINE
  8
21
 66
1
 10
0.0000
 20
0.0000
 30
0.0000
 40
0.0000
 41
0.0000
 70
1
  0
VERTEX
  8
21
 10
211.0559
 20
-194.6702
 30
0.0000
  0
VERTEX
  8
21
 10
210.4902
 20
-195.2359
 30
0.0000
 42
1.0000
  0
VERTEX
  8
21
 10
210.5800
 20
-195.3257
 30
0.0000
  0
VERTEX
  8
21
 10
211.1457
 20
-194.7600
 30
0.0000
 42
1.0000
  0
SEQEND
  8
0
  0
POLYLINE
  8
21
 66
1
 10
0.0000
 20
0.0000
 30
0.0000
 40
0.0000
 41
0.0000
 70
1
  0
VERTEX
  8
21
 10
210.5800
 20
-195.2359
 30
0.0000
  0
VERTEX
  8
21
 10
210.0143
 20
-194.6702
 30
0.0000
 42
1.0000
  0
VERTEX
  8
21
 10
209.9245
 20
-194.7600
 30
0.0000
  0
VERTEX
  8
21
 10
210.4902
 20
-195.3257
 30
0.0000
 42
1.0000
  0
SEQEND
  8
0
  0
POLYLINE
  8
21
 66
1
 10
0.0000
 20
0.0000
 30
0.0000
 40
0.0000
 41
0.0000
 70
1
  0
VERTEX
  8
21
 10
210.0143
 20
-194.6702
 30
0.0000
  0
VERTEX
  8
21
 10
207.9637
 20
-192.6196
 30
0.0000
 42
1.0000
  0
VERTEX
  8
21
 10
207.8739
 20
-192.7094
 30
0.0000
  0
VERTEX
  8
21
 10
209.9245
 20
-194.7600
 30
0.0000
 42
1.0000
  0
SEQEND
  8
0
  0
POLYLINE
  8
21
 66
1
 10
0.0000
 20
0.0000
 30
0.0000
 40
0.0000
 41
0.0000
 70
1
  0
VERTEX
  8
21
 10
207.9637
 20
-192.7094
 30
0.0000
  0
VERTEX
  8
21
 10
210.4386
 20
-190.2345
 30
0.0000
 42
1.0000
  0
VERTEX
  8
21
 10
210.3488
 20
-190.1447
 30
0.0000
  0
VERTEX
  8
21
 10
207.8739
 20
-192.6196
 30
0.0000
 42
1.0000
  0
SEQEND
  8
0
  0
POLYLINE
  8
21
 66
1
 10
0.0000
 20
0.0000
 30
0.0000
 40
0.0000
 41
0.0000
 70
1
  0
VERTEX
  8
21
 10
211.1008
 20
-194.6516
 30
0.0000
  0
VERTEX
  8
21
 10
209.9694
 20
-194.6516
 30
0.0000
 42
1.0000
  0
VERTEX
  8
21
 10
209.9694
 20
-194.7786
 30
0.0000
  0
VERTEX
  8
21
 10
211.1008
 20
-194.7786
 30
0.0000
 42
1.0000
  0
SEQEND
  8
0
  0
LINE
  8
21
 10
208.1663
 20
-192.2756
 30
0.0000
 11
212.7625
 21
-193.1948
 31
0.0000
  0
LINE
  8
21
 10
210.0048
 20
-190.4371
 30
0.0000
 11
210.9240
 21
-195.0333
 31
0.0000
  0
CIRCLE
  8
21
 10
210.4644
 20
-192.7352
 30
0.0000
 40
1.4903
  0
CIRCLE
  8
21
 10
210.4644
 20
-192.7352
 30
0.0000
 40
1.5903
  0
CIRCLE
  8
21
 10
210.4644
 20
-192.7352
 30
0.0000
 40
1.2842
  0
CIRCLE
  8
21
 10
210.4644
 20
-192.7352
 30
0.0000
 40
1.3842
  0
POLYLINE
  8
21
 66
1
 10
0.0000
 20
0.0000
 30
0.0000
 40
0.0000
 41
0.0000
 70
1
  0
VERTEX
  8
21
 10
207.9364
 20
-185.3514
 30
0.0000
  0
VERTEX
  8
21
 10
209.3523
 20
-188.7698
 30
0.0000
 42
1.0000
  0
VERTEX
  8
21
 10
209.4696
 20
-188.7212
 30
0.0000
  0
VERTEX
  8
21
 10
208.0537
 20
-185.3028
 30
0.0000
 42
1.0000
  0
SEQEND
  8
0
  0
POLYLINE
  8
21
 66
1
 10
0.0000
 20
0.0000
 30
0.0000
 40
0.0000
 41
0.0000
 70
1
  0
VERTEX
  8
21
 10
209.3867
 20
-188.6868
 30
0.0000
  0
VERTEX
  8
21
 10
206.8922
 20
-189.7201
 30
0.0000
 42
1.0000
  0
VERTEX
  8
21
 10
206.9408
 20
-189.8374
 30
0.0000
  0
VERTEX
  8
21
 10
209.4353
 20
-188.8041
 30
0.0000
 42
1.0000
  0
SEQEND
  8
0
  0
POLYLINE
  8
21
 66
1
 10
0.0000
 20
0.0000
 30
0.0000
 40
0.0000
 41
0.0000
 70
1
  0
VERTEX
  8
21
 10
206.8922
 20
-189.7201
 30
0.0000
  0
VERTEX
  8
21
 10
206.1531
 20
-190.0262
 30
0.0000
 42
1.0000
  0
VERTEX
  8
21
 10
206.2017
 20
-190.1435
 30
0.0000
  0
VERTEX
  8
21
 10
206.9408
 20
-189.8374
 30
0.0000
 42
1.0000
  0
SEQEND
  8
0
  0
POLYLINE
  8
21
 66
1
 10
0.0000
 20
0.0000
 30
0.0000
 40
0.0000
 41
0.0000
 70
1
  0
VERTEX
  8
21
 10
206.2360
 20
-190.0606
 30
0.0000
  0
VERTEX
  8
21
 10
205.9299
 20
-189.3215
 30
0.0000
 42
1.0000
  0
VERTEX
  8
21
 10
205.8126
 20
-189.3701
 30
0.0000
  0
VERTEX
  8
21
 10
206.1187
 20
-190.1092
 30
0.0000
 42
1.0000
  0
SEQEND
  8
0
  0
POLYLINE
  8
21
 66
1
 10
0.0000
 20
0.0000
 30
0.0000
 40
0.0000
 41
0.0000
 70
1
  0
VERTEX
  8
21
 10
205.9299
 20
-189.3215
 30
0.0000
  0
VERTEX
  8
21
 10
204.8201
 20
-186.6422
 30
0.0000
 42
1.0000
  0
VERTEX
  8
21
 10
204.7028
 20
-186.6908
 30
0.0000
  0
VERTEX
  8
21
 10
205.8126
 20
-189.3701
 30
0.0000
 42
1.0000
  0
SEQEND
  8
0
  0
POLYLINE
  8
21
 66
1
 10
0.0000
 20
0.0000
 30
0.0000
 40
0.0000
 41
0.0000
 70
1
  0
VERTEX
  8
21
 10
204.7857
 20
-186.7252
 30
0.0000
  0
VERTEX
  8
21
 10
208.0193
 20
-185.3858
 30
0.0000
 42
1.0000
  0
VERTEX
  8
21
 10
207.9707
 20
-185.2685
 30
0.0000
  0
VERTEX
  8
21
 10
204.7371
 20
-186.6079
 30
0.0000
 42
1.0000
  0
SEQEND
  8
0
  0
POLYLINE
  8
21
 66
1
 10
0.0000
 20
0.0000
 30
0.0000
 40
0.0000
 41
0.0000
 70
1
  0
VERTEX
  8
21
 10
206.9408
 20
-189.7201
 30
0.0000
  0
VERTEX
  8
21
 10
205.8955
 20
-189.2871
 30
0.0000
 42
1.0000
  0
VERTEX
  8
21
 10
205.8469
 20
-189.4044
 30
0.0000
  0
VERTEX
  8
21
 10
206.8922
 20
-189.8374
 30
0.0000
 42
1.0000
  0
SEQEND
  8
0
  0
LINE
  8
21
 10
205.1389
 20
-186.4019
 30
0.0000
 11
209.0335
 21
-189.0101
 31
0.0000
  0
LINE
  8
21
 10
207.5410
 20
-185.4069
 30
0.0000
 11
206.6314
 21
-190.0051
 31
0.0000
  0
CIRCLE
  8
21
 10
207.0862
 20
-187.7060
 30
0.0000
 40
1.4903
  0
CIRCLE
  8
21
 10
207.0862
 20
-187.7060
 30
0.0000
 40
1.5903
  0
CIRCLE
  8
21
 10
207.0862
 20
-187.7060
 30
0.0000
 40
1.2842
  0
CIRCLE
  8
21
 10
207.0862
 20
-187.7060
 30
0.0000
 40
1.3842
  0
POLYLINE
  8
21
 66
1
 10
0.0000
 20
0.0000
 30
0.0000
 40
0.0000
 41
0.0000
 70
1
  0
VERTEX
  8
21
 10
207.5281
 20
-179.7854
 30
0.0000
  0
VERTEX
  8
21
 10
207.5281
 20
-183.4854
 30
0.0000
 42
1.0000
  0
VERTEX
  8
21
 10
207.6551
 20
-183.4854
 30
0.0000
  0
VERTEX
  8
21
 10
207.6551
 20
-179.7854
 30
0.0000
 42
1.0000
  0
SEQEND
  8
0
  0
POLYLINE
  8
21
 66
1
 10
0.0000
 20
0.0000
 30
0.0000
 40
0.0000
 41
0.0000
 70
1
  0
VERTEX
  8
21
 10
207.5916
 20
-183.4219
 30
0.0000
  0
VERTEX
  8
21
 10
204.8916
 20
-183.4219
 30
0.0000
 42
1.0000
  0
VERTEX
  8
21
 10
204.8916
 20
-183.5489
 30
0.0000
  0
VERTEX
  8
21
 10
207.5916
 20
-183.5489
 30
0.0000
 42
1.0000
  0
SEQEND
  8
0
  0
POLYLINE
  8
21
 66
1
 10
0.0000
 20
0.0000
 30
0.0000
 40
0.0000
 41
0.0000
 70
1
  0
VERTEX
  8
21
 10
204.8916
 20
-183.4219
 30
0.0000
  0
VERTEX
  8
21
 10
204.0916
 20
-183.4219
 30
0.0000
 42
1.0000
  0
VERTEX
  8
21
 10
204.0916
 20
-183.5489
 30
0.0000
  0
VERTEX
  8
21
 10
204.8916
 20
-183.5489
 30
0.0000
 42
1.0000
  0
SEQEND
  8
0
  0
POLYLINE
  8
21
 66
1
 10
0.0000
 20
0.0000
 30
0.0000
 40
0.0000
 41
0.0000
 70
1
  0
VERTEX
  8
21
 10
204.1551
 20
-183.4854
 30
0.0000
  0
VERTEX
  8
21
 10
204.1551
 20
-182.6854
 30
0.0000
 42
1.0000
  0
VERTEX
  8
21
 10
204.0281
 20
-182.6854
 30
0.0000
  0
VERTEX
  8
21
 10
204.0281
 20
-183.4854
 30
0.0000
 42
1.0000
  0
SEQEND
  8
0
  0
POLYLINE
  8
21
 66
1
 10
0.0000
 20
0.0000
 30
0.0000
 40
0.0000
 41
0.0000
 70
1
  0
VERTEX
  8
21
 10
204.1551
 20
-182.6854
 30
0.0000
  0
VERTEX
  8
21
 10
204.1551
 20
-179.7854
 30
0.0000
 42
1.0000
  0
VERTEX
  8
21
 10
204.0281
 20
-179.7854
 30
0.0000
  0
VERTEX
  8
21
 10
204.0281
 20
-182.6854
 30
0.0000
 42
1.0000
  0
SEQEND
  8
0
  0
POLYLINE
  8
21
 66
1
 10
0.0000
 20
0.0000
 30
0.0000
 40
0.0000
 41
0.0000
 70
1
  0
VERTEX
  8
21
 10
204.0916
 20
-179.8489
 30
0.0000
  0
VERTEX
  8
21
 10
207.5916
 20
-179.8489
 30
0.0000
 42
1.0000
  0
VERTEX
  8
21
 10
207.5916
 20
-179.7219
 30
0.0000
  0
VERTEX
  8
21
 10
204.0916
 20
-179.7219
 30
0.0000
 42
1.0000
  0
SEQEND
  8
0
  0
POLYLINE
  8
21
 66
1
 10
0.0000
 20
0.0000
 30
0.0000
 40
0.0000
 41
0.0000
 70
1
  0
VERTEX
  8
21
 10
204.9365
 20
-183.4405
 30
0.0000
  0
VERTEX
  8
21
 10
204.1365
 20
-182.6405
 30
0.0000
 42
1.0000
  0
VERTEX
  8
21
 10
204.0467
 20
-182.7303
 30
0.0000
  0
VERTEX
  8
21
 10
204.8467
 20
-183.5303
 30
0.0000
 42
1.0000
  0
SEQEND
  8
0
  0
LINE
  8
21
 10
204.5416
 20
-179.6854
 30
0.0000
 11
207.1416
 21
-183.5854
 31
0.0000
  0
LINE
  8
21
 10
207.1416
 20
-179.6854
 30
0.0000
 11
204.5416
 21
-183.5854
 31
0.0000
  0
CIRCLE
  8
21
 10
205.8416
 20
-181.6354
 30
0.0000
 40
1.4903
  0
CIRCLE
  8
21
 10
205.8416
 20
-181.6354
 30
0.0000
 40
1.5903
  0
CIRCLE
  8
21
 10
205.8416
 20
-181.6354
 30
0.0000
 40
1.2842
  0
CIRCLE
  8
21
 10
205.8416
 20
-181.6354
 30
0.0000
 40
1.3842
  0
POLYLINE
  8
21
 66
1
 10
0.0000
 20
0.0000
 30
0.0000
 40
0.0000
 41
0.0000
 70
1
  0
VERTEX
  8
21
 10
209.3523
 20
-174.4502
 30
0.0000
  0
VERTEX
  8
21
 10
207.9364
 20
-177.8686
 30
0.0000
 42
1.0000
  0
VERTEX
  8
21
 10
208.0537
 20
-177.9172
 30
0.0000
  0
VERTEX
  8
21
 10
209.4696
 20
-174.4988
 30
0.0000
 42
1.0000
  0
SEQEND
  8
0
  0
POLYLINE
  8
21
 66
1
 10
0.0000
 20
0.0000
 30
0.0000
 40
0.0000
 41
0.0000
 70
1
  0
VERTEX
  8
21
 10
208.0193
 20
-177.8342
 30
0.0000
  0
VERTEX
  8
21
 10
205.5249
 20
-176.8010
 30
0.0000
 42
1.0000
  0
VERTEX
  8
21
 10
205.4762
 20
-176.9183
 30
0.0000
  0
VERTEX
  8
21
 10
207.9707
 20
-177.9515
 30
0.0000
 42
1.0000
  0
SEQEND
  8
0
  0
POLYLINE
  8
21
 66
1
 10
0.0000
 20
0.0000
 30
0.0000
 40
0.0000
 41
0.0000
 70
1
  0
VERTEX
  8
21
 10
205.5249
 20
-176.8010
 30
0.0000
  0
VERTEX
  8
21
 10
204.7857
 20
-176.4948
 30
0.0000
 42
1.0000
  0
VERTEX
  8
21
 10
204.7371
 20
-176.6121
 30
0.0000
  0
VERTEX
  8
21
 10
205.4762
 20
-176.9183
 30
0.0000
 42
1.0000
  0
SEQEND
  8
0
  0
POLYLINE
  8
21
 66
1
 10
0.0000
 20
0.0000
 30
0.0000
 40
0.0000
 41
0.0000
 70
1
  0
VERTEX
  8
21
 10
204.8201
 20
-176.5778
 30
0.0000
  0
VERTEX
  8
21
 10
205.1263
 20
-175.8387
 30
0.0000
 42
1.0000
  0
VERTEX
  8
21
 10
205.0089
 20
-175.7901
 30
0.0000
  0
VERTEX
  8
21
 10
204.7028
 20
-176.5292
 30
0.0000
 42
1.0000
  0
SEQEND
  8
0
  0
POLYLINE
  8
21
 66
1
 10
0.0000
 20
0.0000
 30
0.0000
 40
0.0000
 41
0.0000
 70
1
  0
VERTEX
  8
21
 10
205.1263
 20
-175.8387
 30
0.0000
  0
VERTEX
  8
21
 10
206.2360
 20
-173.1594
 30
0.0000
 42
1.0000
  0
VERTEX
  8
21
 10
206.1187
 20
-173.1108
 30
0.0000
  0
VERTEX
  8
21
 10
205.0089
 20
-175.7901
 30
0.0000
 42
1.0000
  0
SEQEND
  8
0
  0
POLYLINE
  8
21
 66
1
 10
0.0000
 20
0.0000
 30
0.0000
 40
0.0000
 41
0.0000
 70
1
  0
VERTEX
  8
21
 10
206.1531
 20
-173.1938
 30
0.0000
  0
VERTEX
  8
21
 10
209.3867
 20
-174.5332
 30
0.0000
 42
1.0000
  0
VERTEX
  8
21
 10
209.4353
 20
-174.4159
 30
0.0000
  0
VERTEX
  8
21
 10
206.2017
 20
-173.0765
 30
0.0000
 42
1.0000
  0
SEQEND
  8
0
  0
POLYLINE
  8
21
 66
1
 10
0.0000
 20
0.0000
 30
0.0000
 40
0.0000
 41
0.0000
 70
1
  0
VERTEX
  8
21
 10
205.5592
 20
-176.8353
 30
0.0000
  0
VERTEX
  8
21
 10
205.1263
 20
-175.7901
 30
0.0000
 42
1.0000
  0
VERTEX
  8
21
 10
205.0089
 20
-175.8387
 30
0.0000
  0
VERTEX
  8
21
 10
205.4419
 20
-176.8839
 30
0.0000
 42
1.0000
  0
SEQEND
  8
0
  0
LINE
  8
21
 10
206.6314
 20
-173.2149
 30
0.0000
 11
207.5410
 21
-177.8131
 31
0.0000
  0
LINE
  8
21
 10
209.0335
 20
-174.2099
 30
0.0000
 11
205.1389
 21
-176.8181
 31
0.0000
  0
CIRCLE
  8
21
 10
207.0862
 20
-175.5140
 30
0.0000
 40
1.4903
  0
CIRCLE
  8
21
 10
207.0862
 20
-175.5140
 30
0.0000
 40
1.5903
  0
CIRCLE
  8
21
 10
207.0862
 20
-175.5140
 30
0.0000
 40
1.2842
  0
CIRCLE
  8
21
 10
207.0862
 20
-175.5140
 30
0.0000
 40
1.3842
  0
POLYLINE
  8
21
 66
1
 10
0.0000
 20
0.0000
 30
0.0000
 40
0.0000
 41
0.0000
 70
1
  0
VERTEX
  8
21
 10
212.9905
 20
-170.3946
 30
0.0000
  0
VERTEX
  8
21
 10
210.3742
 20
-173.0109
 30
0.0000
 42
1.0000
  0
VERTEX
  8
21
 10
210.4640
 20
-173.1007
 30
0.0000
  0
VERTEX
  8
21
 10
213.0803
 20
-170.4844
 30
0.0000
 42
1.0000
  0
SEQEND
  8
0
  0
POLYLINE
  8
21
 66
1
 10
0.0000
 20
0.0000
 30
0.0000
 40
0.0000
 41
0.0000
 70
1
  0
VERTEX
  8
21
 10
210.4640
 20
-173.0109
 30
0.0000
  0
VERTEX
  8
21
 10
208.5548
 20
-171.1017
 30
0.0000
 42
1.0000
  0
VERTEX
  8
21
 10
208.4650
 20
-171.1915
 30
0.0000
  0
VERTEX
  8
21
 10
210.3742
 20
-173.1007
 30
0.0000
 42
1.0000
  0
SEQEND
  8
0
  0
POLYLINE
  8
21
 66
1
 10
0.0000
 20
0.0000
 30
0.0000
 40
0.0000
 41
0.0000
 70
1
  0
VERTEX
  8
21
 10
208.5548
 20
-171.1017
 30
0.0000
  0
VERTEX
  8
21
 10
207.9891
 20
-170.5360
 30
0.0000
 42
1.0000
  0
VERTEX
  8
21
 10
207.8993
 20
-170.6258
 30
0.0000
  0
VERTEX
  8
21
 10
208.4650
 20
-171.1915
 30
0.0000
 42
1.0000
  0
SEQEND
  8
0
  0
POLYLINE
  8
21
 66
1
 10
0.0000
 20
0.0000
 30
0.0000
 40
0.0000
 41
0.0000
 70
1
  0
VERTEX
  8
21
 10
207.9891
 20
-170.6258
 30
0.0000
  0
VERTEX
  8
21
 10
208.5548
 20
-170.0601
 30
0.0000
 42
1.0000
  0
VERTEX
  8
21
 10
208.4650
 20
-169.9703
 30
0.0000
  0
VERTEX
  8
21
 10
207.8993
 20
-170.5360
 30
0.0000
 42
1.0000
  0
SEQEND
  8
0
  0
POLYLINE
  8
21
 66
1
 10
0.0000
 20
0.0000
 30
0.0000
 40
0.0000
 41
0.0000
 70
1
  0
VERTEX
  8
21
 10
208.5548
 20
-170.0601
 30
0.0000
  0
VERTEX
  8
21
 10
210.6054
 20
-168.0095
 30
0.0000
 42
1.0000
  0
VERTEX
  8
21
 10
210.5156
 20
-167.9197
 30
0.0000
  0
VERTEX
  8
21
 10
208.4650
 20
-169.9703
 30
0.0000
 42
1.0000
  0
SEQEND
  8
0
  0
POLYLINE
  8
21
 66
1
 10
0.0000
 20
0.0000
 30
0.0000
 40
0.0000
 41
0.0000
 70
1
  0
VERTEX
  8
21
 10
210.5156
 20
-168.0095
 30
0.0000
  0
VERTEX
  8
21
 10
212.9905
 20
-170.4844
 30
0.0000
 42
1.0000
  0
VERTEX
  8
21
 10
213.0803
 20
-170.3946
 30
0.0000
  0
VERTEX
  8
21
 10
210.6054
 20
-167.9197
 30
0.0000
 42
1.0000
  0
SEQEND
  8
0
  0
POLYLINE
  8
21
 66
1
 10
0.0000
 20
0.0000
 30
0.0000
 40
0.0000
 41
0.0000
 70
1
  0
VERTEX
  8
21
 10
208.5734
 20
-171.1466
 30
0.0000
  0
VERTEX
  8
21
 10
208.5734
 20
-170.0152
 30
0.0000
 42
1.0000
  0
VERTEX
  8
21
 10
208.4464
 20
-170.0152
 30
0.0000
  0
VERTEX
  8
21
 10
208.4464
 20
-171.1466
 30
0.0000
 42
1.0000
  0
SEQEND
  8
0
  0
LINE
  8
21
 10
210.9494
 20
-168.2121
 30
0.0000
 11
210.0302
 21
-172.8083
 31
0.0000
  0
LINE
  8
21
 10
212.7879
 20
-170.0506
 30
0.0000
 11
208.1917
 21
-170.9698
 31
0.0000
  0
CIRCLE
  8
21
 10
210.4898
 20
-170.5102
 30
0.0000
 40
1.4903
  0
CIRCLE
  8
21
 10
210.4898
 20
-170.5102
 30
0.0000
 40
1.5903
  0
CIRCLE
  8
21
 10
210.4898
 20
-170.5102
 30
0.0000
 40
1.2842
  0
CIRCLE
  8
21
 10
210.4898
 20
-170.5102
 30
0.0000
 40
1.3842
  0
POLYLINE
  8
21
 66
1
 10
0.0000
 20
0.0000
 30
0.0000
 40
0.0000
 41
0.0000
 70
1
  0
VERTEX
  8
21
 10
217.8482
 20
-168.0076
 30
0.0000
  0
VERTEX
  8
21
 10
214.4298
 20
-169.4235
 30
0.0000
 42
1.0000
  0
VERTEX
  8
21
 10
214.4784
 20
-169.5408
 30
0.0000
  0
VERTEX
  8
21
 10
217.8968
 20
-168.1249
 30
0.0000
 42
1.0000
  0
SEQEND
  8
0
  0
POLYLINE
  8
21
 66
1
 10
0.0000
 20
0.0000
 30
0.0000
 40
0.0000
 41
0.0000
 70
1
  0
VERTEX
  8
21
 10
214.5128
 20
-169.4579
 30
0.0000
  0
VERTEX
  8
21
 10
213.4795
 20
-166.9634
 30
0.0000
 42
1.0000
  0
VERTEX
  8
21
 10
213.3622
 20
-167.0120
 30
0.0000
  0
VERTEX
  8
21
 10
214.3955
 20
-169.5065
 30
0.0000
 42
1.0000
  0
SEQEND
  8
0
  0
POLYLINE
  8
21
 66
1
 10
0.0000
 20
0.0000
 30
0.0000
 40
0.0000
 41
0.0000
 70
1
  0
VERTEX
  8
21
 10
213.4795
 20
-166.9634
 30
0.0000
  0
VERTEX
  8
21
 10
213.1734
 20
-166.2243
 30
0.0000
 42
1.0000
  0
VERTEX
  8
21
 10
213.0561
 20
-166.2729
 30
0.0000
  0
VERTEX
  8
21
 10
213.3622
 20
-167.0120
 30
0.0000
 42
1.0000
  0
SEQEND
  8
0
  0
POLYLINE
  8
21
 66
1
 10
0.0000
 20
0.0000
 30
0.0000
 40
0.0000
 41
0.0000
 70
1
  0
VERTEX
  8
21
 10
213.1390
 20
-166.3072
 30
0.0000
  0
VERTEX
  8
21
 10
213.8781
 20
-166.0011
 30
0.0000
 42
1.0000
  0
VERTEX
  8
21
 10
213.8295
 20
-165.8838
 30
0.0000
  0
VERTEX
  8
21
 10
213.0904
 20
-166.1899
 30
0.0000
 42
1.0000
  0
SEQEND
  8
0
  0
POLYLINE
  8
21
 66
1
 10
0.0000
 20
0.0000
 30
0.0000
 40
0.0000
 41
0.0000
 70
1
  0
VERTEX
  8
21
 10
213.8781
 20
-166.0011
 30
0.0000
  0
VERTEX
  8
21
 10
216.5574
 20
-164.8913
 30
0.0000
 42
1.0000
  0
VERTEX
  8
21
 10
216.5088
 20
-164.7740
 30
0.0000
  0
VERTEX
  8
21
 10
213.8295
 20
-165.8838
 30
0.0000
 42
1.0000
  0
SEQEND
  8
0
  0
POLYLINE
  8
21
 66
1
 10
0.0000
 20
0.0000
 30
0.0000
 40
0.0000
 41
0.0000
 70
1
  0
VERTEX
  8
21
 10
216.4744
 20
-164.8569
 30
0.0000
  0
VERTEX
  8
21
 10
217.8138
 20
-168.0905
 30
0.0000
 42
1.0000
  0
VERTEX
  8
21
 10
217.9311
 20
-168.0419
 30
0.0000
  0
VERTEX
  8
21
 10
216.5917
 20
-164.8083
 30
0.0000
 42
1.0000
  0
SEQEND
  8
0
  0
POLYLINE
  8
21
 66
1
 10
0.0000
 20
0.0000
 30
0.0000
 40
0.0000
 41
0.0000
 70
1
  0
VERTEX
  8
21
 10
213.4795
 20
-167.0120
 30
0.0000
  0
VERTEX
  8
21
 10
213.9125
 20
-165.9667
 30
0.0000
 42
1.0000
  0
VERTEX
  8
21
 10
213.7952
 20
-165.9181
 30
0.0000
  0
VERTEX
  8
21
 10
213.3622
 20
-166.9634
 30
0.0000
 42
1.0000
  0
SEQEND
  8
0
  0
LINE
  8
21
 10
216.7977
 20
-165.2101
 30
0.0000
 11
214.1895
 21
-169.1047
 31
0.0000
  0
LINE
  8
21
 10
217.7927
 20
-167.6122
 30
0.0000
 11
213.1945
 21
-166.7026
 31
0.0000
  0
CIRCLE
  8
21
 10
215.4936
 20
-167.1574
 30
0.0000
 40
1.4903
  0
CIRCLE
  8
21
 10
215.4936
 20
-167.1574
 30
0.0000
 40
1.5903
  0
CIRCLE
  8
21
 10
215.4936
 20
-167.1574
 30
0.0000
 40
1.2842
  0
CIRCLE
  8
21
 10
215.4936
 20
-167.1574
 30
0.0000
 40
1.3842
  0
ENDSEC
  0
EOF
